Metallica - Cunning Stunts Chords & Tabs

 

Cunning Stunts Chords & Tabs

Metallica Chords & Tabs

Version: 4 Type: Bass Tab 0 ratings
1 star 2 stars 3 stars 4 stars 5 stars
comments

Cunning Stunts Bass Tab

Metallica
Cunning Stunts
Tabbed by Sublime5(Ryan VanPatten) - Futrebartender5@netscape.net


G ----14--16--14--13----14--16--14--13-|
D -------------------------------------|
A -------------------------------------|
E -0-----------------------------------|

(Play 2x)                                          
G -13h1413-11------------14-------------14-----------------------|
D -------------14--11--------11------11----11--------------------|
A --------------------12---------12-----------12-----------------|
E --------------------------------------------------00-----------|

G -13h1413-11------------14-------------14-----------------------|
D -------------14--11--------11------11----11--------------------|
A --------------------12---------12-----------12------00---------|
E ---------------------------------------------------------------|

G --11------11---------11---------11-----|------12------12-------12---------|
D -------12----12---12----12---12---12---|----9----9-------9--------9-------|
A -----0----------0----------0---------0-|-10--------10------10-------10-0--|
E ---------------------------------------|----------------------------------|
[ Tab from: http://www.guitartabs.cc/tabs/m/metallica/cunning_stunts_btab_ver_4.html ]
G ---11---11---------11-------11---------|------12------12------------------|
D -----------12----12---12-------12------|----9----9-------9----------------|
A ------0--------0----------0-------0----|-10--------10------10-10-10p8-----|
E ---------------------------------------|-----------------------------0----|

Pause

(Play 6x)
G --10----10-----10-14------12----10-----9----9----9-12---10----9----|
D ----12----12---------12-----12----12----10---10------10---10---12--|
A 0-----0------0----------0-----0-----0-----0----0-------0----0----0-|
E -------------------------------------------------------------------|

(play 3 times)
G -------7-----4--------5------------5--------5-------------7-----4--------5--
D -----7-----5-----5------------7--------7--------7-------7-----5-----5-------
A --0-----------------0------------0--------0----------0-----------------0----
E ----------------------------------------------------------------------------


G ------7---4-----5-----------------------|
D ----7-------5---------------------------|
A --0-----0-----0-------------------------|
E ----------------------------------------|

G --------7-----4--------5------------7--------9------|
D------7-----5-----5------------7--------9--------10--|
A --0-----------------0------------0--------0---------|
E ----------------------------------------------------|
Comments