Metallica - Cunning Stunts Chords & Tabs

 

Cunning Stunts Chords & Tabs

Metallica Chords & Tabs

Version: 2 Type: Bass Tab 0 ratings
1 star 2 stars 3 stars 4 stars 5 stars
comments

Cunning Stunts Bass Tab

   
      H = Hammer On,
      P = Pull Off,
___3___ = Triplets

Intro       
G ---|
D ---|
A ---|
E -0-|

Bass fig1 
G -14--16--14--13----14--16--14--13-|
D ----------------------------------|
A ----------------------------------|
E ----------------------------------|

   ___3___                                        |1.     |.2    
G -13h1413-11------------14-------------14--------|-------|-------|
D -------------14--11--------11------11----11-----|-------|-------|
A --------------------12---------12-----------12--|-------|--00---|
E ------------------------------------------------|--00---|-------|
[ Tab from: http://www.guitartabs.cc/tabs/m/metallica/cunning_stunts_btab_ver_2.html ]
Bass fig2
G --11------11---------11---------11-----|------12------12-------12---------|
D -------12----12---12----12---12---12---|----9----9-------9--------9-------|
A -----0----------0----------0---------0-|-10--------10------10-------10-0--|
E ---------------------------------------|----------------------------------|

G ---11---11---------11-------11---------|------12------12------------------|
D -----------12----12---12-------12------|----9----9-------9----------------|
A ------0--------0----------0-------0----|-10--------10------10-1010p8------|
E ---------------------------------------|-----------------------------0----|

Intro
Bass fig1 x2
Bass fig2
Bass fig1 x2
Bass fig2


    Tabbed by mrk (mrk_m@poczta.arena.pl)
    If you got comments, corrections or any bass solo's plz mail me.
 
	Anyway! Cliff'em all!
Comments