Metallica - Crash Course And Brain Surgery Chords & Tabs

 

Crash Course And Brain Surgery Chords & Tabs

Metallica Chords & Tabs

Version: 2 Type: Bass Tab 0 ratings
1 star 2 stars 3 stars 4 stars 5 stars
comments

Crash Course And Brain Surgery Bass Tab

Artist:Metallica
Song:Crash Course and Brain Surgery
album:Garage inc. disk 2
by:Brad Coleman-Fatal Embrace

   I only know the begining part...
[ Tab from: http://www.guitartabs.cc/tabs/m/metallica/crash_course_and_brain_surgery_btab_ver_2.html ]
 -----------5-6-7------------------------5-6-7------------------
 ------5-6-7-----5-6-7--5-6-7-------5-6-7-----5-6-7--5-6-7------
 -5-6-7------------------------5-6-7----------------------------
 ---------------------------------------------------------------
2x.(this part may not be right but It sounds right to me.)
 ---------------------------------------------------------------
 ---------------------------------------------------------------
 ------------------------------5-4------------------------------
 -0-2-2-2-2-0-2-2-2-2-0-2-2-2-2---5-4--3-2--0-1-----------------
 well thats all I know from that song.Its not much.but Iv never
really sat down and listened to the song so...you can figure it out.
It may not be on the Garage inc.cd but I could not figure it out.
Can somebody email me and tell me what cd its on.
bradly62@excite.com
                     have fun!!!!!!!!!!!!!!!!!
Comments