Metallica - Carpe Diem Baby Chords & Tabs

 

Carpe Diem Baby Chords & Tabs

Metallica Chords & Tabs

Version: 1 Type: Tab 0 ratings
1 star 2 stars 3 stars 4 stars 5 stars
comments

Carpe Diem Baby Tab

Metallica
b=bend        r=return bend       /=slide up      \=slide down

Intro 1  8x (fades in)
------------------------------------------------------------------------------
------------------------------------------------------------------------------
------------------------------------------------------------------------------
-5-5---------5-5--------------------------------------------------------------
-7-7---------7-7--------------------------------------------------------------
-------0-0---------0-0--------------------------------------------------------
     pm---|      pm---|                                                                       
Intro 2
------------------------------------------------------------------------------
-------12b-12\-----------------------------12b-12\----------------------------
-------12b-12\-----------------------------12b-12\----------------------------
------------------------------------------------------------------------------
------------------------5-----5---5-------------------------5----5------------
-0-0-------------0--/7----5-----3----0-0-------------0--/7----5----3-0-3br-0--

[ Tab from: http://www.guitartabs.cc/tabs/m/metallica/carpe_diem_baby_tab.html ]
------------------------------------------------------------------------------
-12b-12\---------------------------12b-12\------------------------12/13-12----
-12b-12\---------------------------12b-12\------------------------12/13-12----
------------------------------------------------------------------------------
------------------5----5---5-----------------------5----5---5-----------------
-----------0--/7----5----3----0-0------------0--/7---5----3----0--------------


------------------------------------------------------------------------------
-(12)\---------------------------------------------------12/13-12-(12)\-------
-(12)\---------------------------------------------------12/13-12-(12)\-------
------------------------------------------------------------------------------
---------------5-----5--------------------------------------------------------
--------0--/7----5-----3-0---3br--0-0--3br--0-0--3br--0-----------------0--/7-


------------------------------------------------------------------------------
------------------------------------------------------------------------------
------------------------------------------------------------------------------
------------------------------------------------------------------------------
-5-----5---5------------2-2---------------------------------------------------
---5-----3-----3br-(3)--0-0--3br--0-0-----------------------------------------
Comments