Metallica - Call Of Ktulu Chords & Tabs

 

Call Of Ktulu Chords & Tabs

Metallica Chords & Tabs

Version: 4 Type: Tab 8 ratings
1 star 2 stars 3 stars 4 stars 5 stars
comments

Call Of Ktulu Tab

Metallica
The Call Of Ktulu
Ride The Lightning
Tabbed by Matt Nicholas
nevermoreh@hotmail.com


(clean)
Fig #1 play each part twice (guitar 1)
---5---------5---|---6---------6---|---8----------8---|---5---------5---
-------6-------6-|-------6-------6-|-------8--------8-|-------6-------6-
-----7-----7-----|-----7-----7-----|-----9------9-----|-----7-----7-----
-0-------7-------|-0-------7-------|-0-------10-------|-0-------7-------
-----------------|-----------------|------------------|-----------------
-----------------|-----------------|------------------|-----------------



Fig #2 4 times (guitar 1)
---------0------|---------0-------
-------0---0----|-------0---0-----
-----5------5---|-----5-------5--- 
---7------------|---7-----------7-
-0------------7-|-6---------------
----------------|-----------------



Fig #3 4 times (guitar 1)
-------1-|-------1-|-------1-|-------5-
-----3---|-----3---|-----3---|-----3---
---2-----|---3-----|---4-----|---5-----
-0-------|-0-------|-0-------|-0-------
---------|---------|---------|---------
---------|---------|---------|---------



Fig #2 4 times (guitar 1)
---------0------|---------0-------
-------0---0----|-------0---0-----
-----5------5---|-----5-------5--- 
---7------------|---7-----------7-
-0------------7-|-6---------------
----------------|-----------------



Fig #3 4 times (guitar 1)
-------1-|-------1-|-------1-|-------5-
-----3---|-----3---|-----3---|-----3---
---2-----|---3-----|---4-----|---5-----
-0-------|-0-------|-0-------|-0-------
---------|---------|---------|---------
---------|---------|---------|---------

(crunch)
Fig #4 (guitar 2)
---------------------------------
---------------------------------
---------------------------------
-7-7-7-7-7-7-7-7-7-7-7-7-7-7-7-7-
-5-5-5-5-5-5-5-5-5-5-5-5-5-5-5-5-
---------------------------------


(distortion)
Fig #2 4 times 
---------0------|---------0-------
-------0---0----|-------0---0-----
-----5------5---|-----5-------5--- 
---7------------|---7-----------7-
-0------------7-|-6---------------
----------------|-----------------


Fig #3 4 times 
-------1-|-------1-|-------1-|-------5-
-----3---|-----3---|-----3---|-----3---
---2-----|---3-----|---4-----|---5-----
-0-------|-0-------|-0-------|-0-------
---------|---------|---------|---------
---------|---------|---------|---------


Fig #2 4 times 
---------0------|---------0-------
-------0---0----|-------0---0-----
-----5------5---|-----5-------5--- 
---7------------|---7-----------7-
-0------------7-|-6---------------
----------------|-----------------


Fig #3 4 times
-------1-|-------1-|-------1-|-------5-
-----3---|-----3---|-----3---|-----3---
---2-----|---3-----|---4-----|---5-----
-0-------|-0-------|-0-------|-0-------
---------|---------|---------|---------
---------|---------|---------|---------


Fig #5 4 times
-----------------------------------
-----------------------------------
-----------------------------------
-----------------9-8-8-8-8-8-8\7/9-     
-7-7-7-7-6-7-6-7-7-6-6-6-6-6-6\5/7-  
-5-5-5-5-4-5-4-5-------------------


Fig #6 4 times
-1-1-1-1--1-1-1-1--1-1-1-1--5-5-5-5-
-3-3-3-3--3-3-3-3--3-3-3-3--3-3-3-3-
-2-2-2-2--3-3-3-3--4-4-4-4--5-5-5-5-
-0-0-0-0--0-0-0-0--0-0-0-0--0-0-0-0-
------------------------------------
------------------------------------


Fig #5 4 times
-----------------------------------
-----------------------------------
-----------------------------------
-----------------9-8-8-8-8-8-8\7/9-     
-7-7-7-7-6-7-6-7-7-6-6-6-6-6-6\5/7-  
-5-5-5-5-4-5-4-5-------------------


Fig #6 4 times
-1-1-1-1--1-1-1-1--1-1-1-1--5-5-5-5-
-3-3-3-3--3-3-3-3--3-3-3-3--3-3-3-3-
-2-2-2-2--3-3-3-3--4-4-4-4--5-5-5-5-
-0-0-0-0--0-0-0-0--0-0-0-0--0-0-0-0-
------------------------------------
------------------------------------


Fig #7 4 times (guitar 1)
-------------|-------------|-------------|---------------
-------------|-------------|-------------|---------------
-------------|-------------|-------------|---------------
-------------|-------------|-------------|---------------
2-------0-2-3|3-------0-2-3|4-------0-2-3|5-------3-2----
0-0-0-0------|1-1-1-1------|2-2-2-2------|3-3-3-3-----3--


Fig #8 2 times (guitar 2)
--------------|--------------|--------------|----------------
--------------|--------------|--------------|----------------
--------------|--------------|--------------|-----------7----
7--7-9-10-9--7|---7-9-10-9--7|---7-9-10-9--7|----7-9-10----10
--------------|8-------------|9-------------|10--------------
--------------|--------------|--------------|----------------


Fig #9 2 times (guitar 1)
-------------|-------------|-------------|--------------
-------------|-------------|-------------|--------------
-------------|-------------|-------------|--------------
-------------|-------------|-------------|--------------
5-------3-5-6|6-------3-5-6|7-------5-7-8|8-------8-7-5-
3-3-3-3------|4-4-4-4------|5-5-5-5------|6-6-6-6-------

[ Tab from: http://www.guitartabs.cc/tabs/m/metallica/call_of_ktulu_tab_ver_4.html ]
Fig #10 2 times (guitar 2)
---------------------|------------------|----------------|---------------
---------------------|------------------|----------------|---------------
---------------------|------------------|----------------|---------13----
12--12-14-15-14-12---|-12-14-15-14-12---|12-14-15-14-12--|12-14-15----15-
-------------------13|----------------14|--------------15|---------------
---------------------|------------------|----------------|---------------
---------------------|------------------|----------------|---------------


Solo (guitar 2)
------------------------------|21^21^21^21^21^21^21^21^21^17--21^17-
-17-21^21^21^21^21^21^21^21^17|-------------------------------------
------------------------------|-------------------------------------
------------------------------|-------------------------------------
------------------------------|-------------------------------------
------------------------------|-------------------------------------


-------------------------------|-------------------------------------
-21-17--17-21-17---------------|-------------------------------------
------20--------20-17--17-20-17|-------------------------------------
---------------------20--------|-20-17--17-20-17---------------------
-------------------------------|------20--------20-17--17-20-17------
-------------------------------|---------------------21--------21-17-


-12-10-9--10-9-----9-----------|-------------------------------------
--------12----12-10-12-10-9-12-|-10-9--------------------------------
-------------------------------|-----11-9-13-11-9--11-9-----9--------
-------------------------------|-----------------12----12-11-12-11-9-
-------------------------------|-------------------------------------
-------------------------------|-------------------------------------


-------------------------------|-------------------------------------
-------------------------------|-------------------------------------
-------------------------------|-------------------------------------
-12-11-9----11-9-------11------|-------------------------------------
---------12------12-11---12-11-|--9-12-11-9----11-9-------9----------
-------------------------------|------------12------12-10---12-10-9--

                                      
-------------------------------|-------------------------------------
-------------------------------|-------------------------------------
-------------------------------|-------------------------------------
-------------------------4-5-7-|-----5h7h14-7h15-7h17-7--------------
-------------------4-5-7-------|-5-7---------------------------------
-12-10-9\--4-0-5-7-------------|-------------------------------------
                                                       

----10h20-16------10h20-16-----|-----10h20-16-------10h20-16---------
--10--------17--10--------17---|---10--------17---10---------17------
10------------10---------------|-10-------------10-------------------
-------------------------------|-------------------------------------
-------------------------------|-------------------------------------
-------------------------------|-------------------------------------


20-16---20-16---20-16---20-16--|--21^21^21^21^21^21^21^21^21^20------
------17------17------17-----17|19-----------------------------------
-------------------------------|-------------------------------------
-------------------------------|-------------------------------------
-------------------------------|-------------------------------------
-------------------------------|-------------------------------------


18-21-20-18-20-19-17-20-19-17-18|17-15-18-17-15-15-13-12-15-13-12----
--------------------------------|------------------------------------
--------------------------------|------------------------------------
--------------------------------|------------------------------------
--------------------------------|------------------------------------
--------------------------------|------------------------------------


13-12-10-13-12-10-10-9-7-10-9-7|8-7-5-8-7-5-8-5----------------------
-------------------------------|-------- ----8-5-5-8-5---------------
-------------------------------|----------------7-----7-5-5-7-5------
-------------------------------|-------------------------7-----------
-------------------------------|-------------------------------------
-------------------------------|-------------------------------------

                
-------------------------------|-------------------------------------
-------------------------------|-------------------------------------
-------------------------------|-------------------------------------
7-5-5-7-5----------------------|-------------------------------------
---7------7-5------------------|-------------------------------------
--------------8-5-10p5h8-10p5h8|10p5h8-10p5h8-10p5h8-10p5h8-10p5h8---

                 
-------------------------------|-------------------------------------
-------------------------------|-------------------------------------
------------------12p5h7-13p5h7|14p5h7-15p5h7-16p5h7-17p5h7-18p5h7---
---------5-7-9-----------------|-------------------------------------
------5-7----------------------|-------------------------------------
-10-8-5------------------------|-------------------------------------

   
---------------------------------------------------------------------
--19p5h7-20p5h7-21p5h7-22p5h7-23p5h7-24p5h7/24~~~--------------------
---------------------------------------------------------------------
---------------------------------------------------------------------
---------------------------------------------------------------------
---------------------------------------------------------------------
Comments