Metallica - Blues Jam Chords & Tabs

 

Blues Jam Chords & Tabs

Metallica Chords & Tabs

Version: 2 Type: Bass Tab 0 ratings
1 star 2 stars 3 stars 4 stars 5 stars
comments

Blues Jam Bass Tab

   
Metallica
Blues Jam
written by: Newstead and Hammett
as performed on Live Shit: Binge and Purge (Mexico City)
tab by Phil Boyle; phil@encycmet.com


During the solos section after Dazed and Confused

Bass:
1)
G---------------------
D---------------------  4 times
A--//-----------------
E--//5-5-10-10-8-8-5-5


2)
G-------------------
D-------------------
A--5-5-10-10-8-8-5-5  2 times; then riff 1
E-------------------


3)
G---------------------------------
D--------9-7------------7-5-------
A--7-7-7-----9-7--5-5-5-----7-5---
E---------------------------------


4)
G------------------------5
D--------------------5-7--
A----------5-5-6-6-7------
E--5-5-8-8----------------

[ Tab from: http://www.guitartabs.cc/tabs/m/metallica/blues_jam_btab_ver_2.html ]
Guitar:
1)
e------------------------------
B------------------------------
G------------7-5------------7-5
D--7p5-------7-5--7p5-------7-5
A------7--------------7--------
E--------5-5------------5-5----


2)
e------------------------------
B------------------------------
G--7p5-------7-5--7p5-------7-5
D------7--------------7--------
A--------5-5------------5-5----
E------------------------------


3)
e-------------------------------------
B------10-8-10p8h10p8------8-6-8p6h8p6
G-------9-7----------------7-5--------
D-------------------------------------
A--7-7-----------------5-5------------
E-------------------------------------


4)
e-------------------------
B-------------------------
G------------------------5
D--------------------5-7--
A----------5-5-6-6-7------
E--5-5-8-8----------------

Then Kirk goes into soloing, which follows the basic blues pattern, start in
A, then D, A, E, D, A.
Comments