Metallica - Blackened Chords & Tabs

 

Blackened Chords & Tabs

Metallica Chords & Tabs

Version: 4 Type: Tab 0 ratings
1 star 2 stars 3 stars 4 stars 5 stars
comments

Blackened Tab

#-----------------------------------------------------------------------------#
#-- File created with Instab - http://www.pconline.com/~smcarey/instab.html --#
#-----------------------------------------------------------------------------#

Author/Artist: Metallica
Title: Blackened Solo
Album: And Justice For All
Transcribed by: Tj Aulner
Email: metalmaster_1@hotmail.com

----|-/18-19-|-24-22-20-19-xh23-21-19-17-20-19-17-15-19-17-15-14-14-|---------
-13b|--------|------------------------------------------------------|---------
-13b|--------|------------------------------------------------------|---------
----|--------|------------------------------------------------------|---------
----|--------|------------------------------------------------------|---------
----|--------|------------------------------------------------------|---------
                                                                              

-|-17-17p15-14-12-11-12-15-14-12-10-9-10-14-12-10-9-8-9-12-10-8-7-|-----------
-|----------------------------------------------------------------|-----------
-|----------------------------------------------------------------|-----------
-|----------------------------------------------------------------|-----------
-|----------------------------------------------------------------|-----------
-|----------------------------------------------------------------|-----------
                                                                      w/bar   

--------------------|---------------------|----------------|---------|--------
-10b-10b-12p10-8-7--|-7-8-7---7-----------|-7---------0---0|---------|-0^^^^--
-------------------9|-------9---9-7-9----7|---9-7---9---7--|-2-------|--------
--------------------|---------------------|-------9--------|---4-2-0-|--------
--------------------|---------------------|----------------|---------|--------
--------------------|---------------------|----------------|---------|--------
                                                                              

-----------------------|----------------------|-----7h8p7----7-8-8h10h12------
-12--------------------|-------------7-8-7---7|8-10-------10------------------
-12----7h9-7----5h7-5-4|5-4--------9-------9--|-------------------------------
-12----------10--------|----4-----------------|-------------------------------
-----------------------|----------------------|-------------------------------
-----------------------|----------------------|-------------------------------
                                            w/trem bar and harmonics          
[ Tab from: http://www.guitartabs.cc/tabs/m/metallica/blackened_tab_ver_4.html ]
-12-10-8-7-----|------------7----------|--------------------------------------
---------------|--------------10p8-7---|----5---------------------------------
---------------|-9-7--7-5--------------|----5---------------------------------
------------x-x|-9-7--7-5--------------|--------------------------------------
------------x-x|-----------------------|--------------------------------------
------------x-x|-----------------------|--------------------------------------
                                                                              

-----------------------------------------|----------------------------------|-
-----------------------------------------|----------------------------------|-
--12p0-12p0-12p0-12p0-12p0-12p0-11p0-11p0|-9p0-9p0-9p0-9p0-9p0-9p0-9p0-0-9p0|-
-----------------------------------------|----------------------------------|-
-----------------------------------------|----------------------------------|-
-----------------------------------------|----------------------------------|-
                                                                              

----------------------------------------|-------------------------------------
----------------------------------------|-------------------------------------
-16p0-16p0-16p0-16p0-16p0-16p0-14p0-14p0|-12p0-12p0-12p0-12p0-12p0-12p0-12p0--
----------------------------------------|-------------------------------------
----------------------------------------|-------------------------------------
----------------------------------------|-------------------------------------
                                                                              

-----|----------------------------------|--------------------------------|----
-----|----------------------------------|--------------------------------|----
-12p0|-2p0-2p0-2h4p0-4p0-5p0-5p0-4p0-4p0|-5p0-5p0-7p0-7p0-9p0-9p0-9p0-9p0|----
-----|----------------------------------|--------------------------------|----
-----|----------------------------------|--------------------------------|----
-----|----------------------------------|--------------------------------|----
 w/harmonics and trem bar                                                     

------------------------------------------------------------------------------
------------------------------------------------------------------------------
-5----------------------------------------------------------------------------
-5----------------------------------------------------------------------------
------------------------------------------------------------------------------
------------------------------------------------------------------------------
Comments