Metallica - Bass And Guitar Doodle Chords & Tabs

 

Bass And Guitar Doodle Chords & Tabs

Metallica Chords & Tabs

Version: 1 Type: Bass Tab 0 ratings
1 star 2 stars 3 stars 4 stars 5 stars
comments

Bass And Guitar Doodle Bass Tab

   
Metallica
Bass and guitar doodle (live cunning stunts) 
Transcribed by:  Ariel Orozco  [ariel@musician.org]

Half Step Tunning

PART A
Gb :-----14-16-14-13----|14-16-14-13----13-h14-13-11|
Db :--------------------|---------------------------|
Ab :--------------------|---------------------------|
Eb :0-------------------|---------------------------|
				       
				      PART B	
Gb :---------14----------14--------*2|-------11-------11------|
Db :14-11-------11----11----11----- ||-------------12----12---|
Ab :------12-------12----------12-- ||----------12----------12|
Eb :------------------------------0 ||-11-11------------------|

[ Tab from: http://www.guitartabs.cc/tabs/m/metallica/bass_and_guitar_doodle_btab.html ]
Gb :----11----------11------|------12------12------12--*2|
Db :-12----12----12----12---|----9----9-------9-------9 ||
Ab :----------12----------12|-10--------10------10----- ||
Eb :------------------------|-------------------------- ||

PART C
Gb :----10------10------|14------12------10----|----9------9------|
Db :-------12------12---|---12------12------12-|------10-----10---|
Ab :-0--------0-------0-|------0-------0-------|-0-------0------0-|
Eb :--------------------|----------------------|------------------|


Gb :12------10------9----*6|
Db :---10------10-----10- ||
Ab :------0-------0------ ||
Eb :--------------------- ||

                  hope you guys have fun with this
  
    
Comments