Metallica - Am I Evil Chords & Tabs

 

Am I Evil Chords & Tabs

Metallica Chords & Tabs

Version: 3 Type: Tab 0 ratings
1 star 2 stars 3 stars 4 stars 5 stars
comments

Am I Evil Tab

   
Am I Evil?
Metallica
Garage Inc. CD2

use normal tuning

..  : palm mute on the "numbers" above the ".."
xx  : (normal) palm mute (whole string)

Intro 
e|---------------------|-------------------------------------------|
B|---------------------|-------------------------------------------|
G|---------------------|-------------------------------------------|
D|-9----7--9--10----12-|-------------------------------------------|
A|-7----5--7---8----10-|-2-xxx-2-xxx-2-xxxxxx-2-xxx-2-xxx-2-xxxxxx-|
E|---------------------|-0-xxx-0-xxx-0-xxxxxx-0-xxx-0-xxx-0-xxxxxx-|

e|-----------------------------------------------------------------
B|-----------------------------------------------------------------
G|-----------------------------------------------------------------
D|-----------------------------------------------------------------
A|-2----999999-8----333333-2----999999-8----333333-2----999999-8---
E|-0----777777-6----111111-0----777777-6----111111-0----777777-6---

----------------------------------------------------
----------------------------------------------------
----------------------------------------------------
-101010101010-7----------------------------555555-7-
--8-8-8-8-8-8-7----999999-8----333333-2----777777-9-
-------------------777777-6----111111-0-------------

-------------------------
-------------------------
-------------------------
----------------777777-9-
-xxx-2-xxx-2-xxx555555-7-
-xxx-0-xxx-0-xxx---------

------------------------------------------------
------------------------------------------------
------------------------------------------------
-----------------777777-9------------- ---777777
-xxx-2-xxx-2--xxx555555-7-xxx-2-xxx-2--xxx555555
-xxx-0-xxx-0--xxx---------xxx-0-xxx-0--xxx------

--------------------------------------------------|
---------------------------------------10--12-????| (let ring)
----------------------10--9--10--12---------------|
----------------9--8------------------------------|
----------8--7------------------------------------|
-0--7--6------------------------------------------|

Little solo
e|------------------------------------------------------------
B|-058-058-058-058-058-047-047-047-047-047-058-058-058-058-058
G|------------------------------------------------------------
D|------------------------------------------------------------
A|------------------------------------------------------------

------------------------------------------------------------
-047-047-047-047-047-058-058-058-058-058-069-069-069-069-069
------------------------------------------------------------
------------------------------------------------------------
------------------------------------------------------------
------------------------------------------------------------
------------------------------------
-058-058-058-047-047-04-7--0----???? (let ring)
------------------------------------
------------------------------------
------------------------------------
------------------------------------

The real song starts now
e|-------------------------------|
B|-------------------------------|
G|-------------------------------|
D|-----5-------------------------|
A|-5-----------5-------7---------|
E|---------5-------7-------------|

There are 2 types of Verse 1 you can play. Version 1 is much more easy to play.
But just try them out, they sounds almost the same, so choose your one! 

Verse 1 (version 1)
e|---------------------|
B|---------------------|
G|---------------------|
D|---------------------|
A|-xxxx-5xx-9-xxx-10-9-|
E|-xxxx-3xx-7-xxx--8-7-|

Verse 1 (version 2)
e|---------------------|
B|---------------------|
G|---------------------|
D|-----------2-----3-2-|
A|-xxxx-5-xx-0-xxx-1-0-|
E|-xxxx-3-xx---xxx-----|
   
Chorus 1
e|--------------------|
B|--------------------|
G|--------------------|
D|-----2-----4----5-4-|
A|-444-2-444-4-44-3-2-|
E|-222---222---22-----|
   ...   ...   ..

Play the verse 14 x (total)
Play the chorus 4 x (total) 
Play the verse  4 x (total)

Solo 1
e|--------------------------------------------------------------
B|--------------------------------------------------------------
G|--------------------------------------------------------------
D|-------------------2-----1-2----------------------------------
A|-10-8-6----xxx-5xx-0-xxx-3-0--10--8--6----10--8--6----10--8--6
E|--8-6-4----xxx-3xx---xxx-------8--6--4-----8--6--4-----8--6--4

-------------------------
-------------------------
-------------------------
-------------------------
-10--12--13--12----11----
--8--10--11--10-----9----

Verse 2 (as fast as you can!!!)
e|--------------------------|--------------------------|
B|--------------------------|--------------------------|
G|--------------------------|--------------------------|
D|------------------------4-|----------------------4---| 2x
A|-4-4444-4-4444-4-4444-2-2-|-4-4444-4-4444-4-4444-2-2-|
E|-2-2222-2-2222-2-2222-0---|-2-2222-2-2222-2-2222---0-|
     ....   ....   ....         ....   ....   ....

Chorus 2
e|-----------------------------------------|
B|-----------------------------------------|
G|-----------------------------------------|
D|------------------9------------------7-7-| 4 x
A|-x-xxxx-xxxx-xxxx-7-x-xxxx-xxxx-xxxx-5-5-|
E|-x-xxxx-xxxx-xxxx---x-xxxx-xxxx-xxxx-----|

After this
Repeat Verse 2 		2x
Repeat Chorus 2 	4x
Repeat Verse 2 		4x

Ok and then now a difficult part of this song, its the solo 

(btw I was not the one who tabbed it!!!)

Long solo
|-----------7-------|----------------11-12--
|------------10-7-7/|/12-----------12-------
|-9^^^^^^^^^--------|-----------------------
|-------------------|-----------------------
|-------------------|-----------------------
|-------------------|-----------------------

|-11-12-11---11-12-14-14-14-12-11-12-11----|-----------------7---
|---------12----------------------------12-|-10---------/7-------
|------------------------------------------|---------------------
|------------------------------------------|---------------------
|------------------------------------------|---------------------
|------------------------------------------|---------------------
[ Tab from: http://www.guitartabs.cc/tabs/m/metallica/am_i_evil_tab_ver_3.html ]
-10-9--7--7-9-7-----7--------|--------------------------
----------------10----10-7---|-10-7---7-----------------
-----------------------------|------9---9-7-9-7---7---7-
-----------------------------|------------------9-------
-----------------------------|--------------------------
-----------------------------|--------------------------

-----7-----------------------|-----7-----------------------
-----7-10-7---7--------------|-----7-10-7---7--------------
-9^^--------9---9-7-7------7-|-9^^--------9---9-7-7------7-
-----------------------------|-----------------------------
-----------------------------|-----------------------------
-----------------------------|-----------------------------

-----7-----------------------|-/19--/20---/22---/24----------
-----7-10-7---7--------------|-------------------------------
-9^^--------9---9-7-7------7-|-------------------------------
-----------------------------|-------------------------------
-----------------------------|-------------------------------
-----------------------------|-------------------------------

-15-14-12----12-14-15-14-12----12-14-|-15-14-12----12-14-15-14-12----12-14-
----------15----------------15-------|----------15----------------15-------
-------------------------------------|-------------------------------------
-------------------------------------|-------------------------------------
-------------------------------------|-------------------------------------
-------------------------------------|-------------------------------------

-15---14---12--------12---------|--------------------------------
----------------15--------15----|-14---12---14-------------------
--------------------------------|----------------12======--------
--------------------------------|--------------------------------
--------------------------------|--------------------------------
--------------------------------|--------------------------------

------7-0-0-9-0-0-10-0-0-|-12-0-0-10-0-0-9-0-0-7-0-0-
----7--------------------|---------------------------
-9^----------------------|---------------------------
-------------------------|---------------------------
-------------------------|---------------------------
-------------------------|---------------------------

-10---9---7--------7---------|----------------------------
--------------10-------10----|-9---7---9------------------
-----------------------------|-------------7======\-------
-----------------------------|----------------------------
-----------------------------|----------------------------
-----------------------------|----------------------------

-----------------|-----------------|-----------------|-047-047-047-047-
-047-047-047-047-|-058-058-058-058-|-047-047-047-047-|-----------------
-----------------|-----------------|-----------------|-----------------
-----------------|-----------------|-----------------|-----------------
-----------------|-----------------|-----------------|-----------------
-----------------|-----------------|-----------------|-----------------

-058-058-058-058-|-047-047-047-047-|-1285-1285-1285-1285-
-----------------|-----------------|---------------------
-----------------|-----------------|*-------------------*
-----------------|-----------------|---------------------
-----------------|-----------------|*-------------------*
-----------------|-----------------|---------------------

-1385-1385-1385-1385-|-1396-1396-1396-1396-|-1496-1496-1496-1496-
---------------------|---------------------|---------------------
*-------------------*|*-------------------*|---------------------
---------------------|---------------------|---------------------
*-------------------*|*-------------------*|---------------------
---------------------|---------------------|---------------------

-14107-14107-14107-14107-|-047-----047-----|-047-----047-----
-------------------------|-----047-----047-|-----047-----047-
*-----------------------*|-----------------|-----------------
-------------------------|-----------------|-----------------
*-----------------------*|-----------------|-----------------
-------------------------|-----------------|-----------------

-----------------|-----------------|-----------------|-----------------
-047-----047-----|-047-----047-----|-----------------|-----------------
-----047-----047-|-----047-----047-|-047-----047-----|-047-----047-----
-----------------|-----------------|-----047-----047-|-----047-----047-
-----------------|-----------------|-----------------|-----------------
-----------------|-----------------|-----------------|-----------------

-----------------|-------------------|-------------------------------------
-----------------|----------------12-|-1514-0-0-1715-0-0-1514-0-0-1715-0-0-
-----------------|-------------/14---|-------------------------------------
-047-----047-----|-------------------|-------------------------------------
-----047-----047-|-------------------|-------------------------------------
-----------------|-7\----------------|-------------------------------------

-------------------------------------|---------------------------------
-1514-0-0-1715-0-0-1514-0-0-1715-0-0-|-1514-0-1412-0-1210-0-109-0-97-0-
-------------------------------------|---------------------------------
-------------------------------------|---------------------------------
-------------------------------------|---------------------------------
-------------------------------------|---------------------------------

-------------------|----------------------|------------10^====
-7-----------------|-10^------107---7-----|-------------------
-7-9-7---7---------|--------------9---9-7-|-9-7---7-----------
-------------------|----------------------|-----9-------------
-------------------|----------------------|-------------------
-------------------|----------------------|-------------------

-9----12-------------------|--------------------------
-----------10-12-10-8-10-8-|-7-8-7-5-6-5--3========---
---------------------------|--------------------------
---------------------------|--------------------------
---------------------------|--------------------------
---------------------------|--------------------------

Verse 2 		2x
Chorus 2 		4x
Verse 2 		4x

Then this
e|-------------------|		|----------------|
B|-------------------|		|----------------|
G|-------------------|		|----------------|
D|----9-77-77--------|3x then	|----7-77-77-7-5-|
A|-xx-7-55-55---5----|		|-xx-9-55-55-5-3-|
E|-xx---------35-530-|		|-xx-------------|

Verse 1		6x and with the sixth time like this
e|---------------------|----------|
B|---------------------|----------|
G|---------------------|----------|
D|-----------2-----3-2-|----------|
A|-xxxx-5-xx-0-xxx-1-0-|-----5--2-|
E|-xxxx-3-xx-----------|-5-5-3--0-|
                         . .

That's it!

Any questions? Then send a mail to: 
emieljanssen@hotmail.com
Comments