Metallica - All Nightmare Long Chords & Tabs

 

All Nightmare Long Chords & Tabs

Metallica Chords & Tabs

Version: 2 Type: Tab 0 ratings
1 star 2 stars 3 stars 4 stars 5 stars
comments

All Nightmare Long Tab

Guitar 1
----------------------------------------------------------|
----------------------------------------------------------|
----------------------------------------------------------|   x10
--------5--6b--5-----------5----------5-------------------|
--5--8---------------5--8----------------8----------------|
------------------------------3b---0----------------------|

[ Tab from: http://www.guitartabs.cc/tabs/m/metallica/all_nightmare_long_tab_ver_2.html ]
Guitar 2 (after guitar one plays riff 4 times)
----------------------------------------------------------|
----------------------------------------------------------|
----------------------------------------------------------|   x2
--0--------6---5-----x---x--------------------------------|
--0--------6---5-----x---x--------------------------------|
--0--------6---5-----x---x--------------------------------|


----------------------------------------------------------|
----------------------------------------------------------|
----------------------------------------------------------|   x3
--0--------6---5-----x---x---x----------------------------|
--0--------6---5-----x---x---x----------------------------|
--0--------6---5-----x---x---x----------------------------|

----------------------------------------------------------|
----------------------------------------------------------|
----------------------------------------------------------|
--0-------------------------------------------------------|
--0-------------------------------------------------------|
--0-------------------------------------------------------|
Comments