Metallica - 53rd And 3rd Chords & Tabs

 

53rd And 3rd Chords & Tabs

Metallica Chords & Tabs

Version: 1 Type: Tab 1 rating
1 star 2 stars 3 stars 4 stars 5 stars
comments

53rd And 3rd Tab

   
53rd and 3rd - METALLICA
------------------------
Off the Ramones tribute CD


Normal tuning (no drop for this song, a first for metallica :p... and is that Lars on backup vocals?)


Riff A
E|-------------------|---------------------|
B|-------------------|---------------------|
G|-------------------|-7----7--------------|
D|---------2----2----|-7----7----7----7----|
A|---------2----2----|-5----5----7----7----|
E|-0-0-0-0-0----0----|-----------5----5----|
   


Riff B
E|---------------------|---------------------|
B|---------------------|---------------------|
G|-7----7--------------|---------------------|
D|-7----7----7----7----|-5----5----7----7----|
A|-5----5----7----7----|-5----5----7----7----|
E|-----------5----5----|-3----3----5----5----|

[ Tab from: http://www.guitartabs.cc/tabs/m/metallica/53rd_and_3rd_tab.html ]
Riff C
E|-----------------|---------------------|-----------------|---------------------|
B|-----------------|---------------------|-----------------|---------------------|
G|-----------------|-2----2----2----2----|-----------------|-2----2----2----2----|
D|-4-4-4-4-4-4-4-4-|-2----2----2----2----|-----------------|-2----2----2----2----|
A|-2-2-2-2-2-2-2-2-|-0----0----0----0----|-5-5-5-5-5-5-5-5-|-0----0----0----0----|
E|-----------------|---------------------|-3-3-3-3-3-3-3-3-|---------------------|
                            

Riff D

E|---------------------|---------------------|
B|---------------------|---------------------|
G|-9----9--------------|-----------9----9----|
D|-9----9----9----9----|-7----7----9----9----|
A|-7----7----9----9----|-7----7----7----7----|
E|-----------7----7----|-5----5--------------|

End

E|--------------|
B|--------------|
G|--------------|
D|---------2----|
A|---------2----|
E|-0-0-0-0-0----|


Song order:

Riff A x 8
Riff B x 4
Riff A x 4
Riff B x 4
Riff C x 2
Riff D x 4
Riff A x 8
End



And that's it... pretty simple huh?
Any questions or comments e-mail me at vig@aero.und.edu

have fun
Comments