Metallica - 53rd And 3rd Chords & Tabs

 

53rd And 3rd Chords & Tabs

Metallica Chords & Tabs

Version: 1 Type: Bass Tab 0 ratings
1 star 2 stars 3 stars 4 stars 5 stars
comments

53rd And 3rd Bass Tab

Song: 53rd & 3rd
Band: Metallica (Ramones cover)
Album: We're A Happy Family
Tabbed by: Peter Kondrup (popetot@sol.dk)

I'm assuming this is in dropped D tuning, as the verse riff seems
too "heavy" to be played on the A- and high D-string.

Verse
G|-------------------------------------
D|-------------------------------------
A|---------------0-00------------------
D|--22222--220-00----------------------

Chorus
G|-------------------------------------
D|-------------------------------------
A|--5-55-------------------------------
D|------7-775-557-77-------------------
[ Tab from: http://www.guitartabs.cc/tabs/m/metallica/53rd_and_3rd_btab.html ]
Bridge
G|-------------------------------------
D|-------------------------------------
A|-------------------------------------
D|-99999-997-777777-55555-557-777777---

Final chorus (up one note)
G|-------------------------------------
D|-------------------------------------
A|--7-77-------------------------------
D|------9-997-779-99-------------------

End
G|-------------------------------------
D|-------------------------------------
A|-------------------------------------
D|--2----------------------------------
  *let note ring

Enjoy!

Any corrections, suggestions etc. to popetot@sol.dk!
Comments