Metallica - 2x Chords & Tabs

 

2x Chords & Tabs

Metallica Chords & Tabs

Version: 1 Type: Bass Tab 0 ratings
1 star 2 stars 3 stars 4 stars 5 stars
comments

2x Bass Tab

2x4--METALLICA
(From the album Load)
Bass tab
Transcribed by Chris Grammenos (nikgram@waternet.diavlos.gr)
For any comments,corrections or anything else mail me.


Riff 1:
|--------------------------------------|   
|--------------------------------------|
|--------------------------------------|
|--0-3/5-6--0-3/5-6--0-3/5-0--0-3/5-0--|

Riff 2:
|-----------------------------------|
|-----------------------------------|
|-----------------------------------|
|--0--0-3--0-5/6--0-5/6--0-6-0-5-3--|

Riff 3:
|----------------------------------|
|----------------------------------|
|----------------------------------|
|--0--0-3--0-5--0--6\5--3--6\5--3--|
[ Tab from: http://www.guitartabs.cc/tabs/m/metallica/2x_btab.html ]
Riff 4:
|------------------------|
|------------------------|
|------------------------|
|--0-3/5-6------0-3/5-0--|

Riff 5:
|--------------|----------------------------------------|
|--------------|----------------------------------------|
|--------------|----------------------------------------|
|--0--3--5--1--|--1-1-1-1-1-1-1-1-1-1-1-1-1-1-1--1--1---|
                x4|                             4th time  

Riff 6:
|------------|-----------------------|
|------------|-----------------------|
|------------|-----------------------|
|--0--3-5-3--|--0--3-5-3--0--3-5-3---|
                      
The riffs 
Riff1 x4
Riff2 x4  
Riff3 x4  
Riff2 x2  
Riff3 x4  
Riff4 x4  
Riff1 x6  
Riff2 x4  
Riff3 x4  
Riff4 x3  
Riff1 x6  
Riff1 x4  
Riff4 x1
Riff6 x8  
Riff1 x2  
Riff4 x3  
Riff1 x6  
Riff6 x1  



Comments