Metallica - 2 Bloody Horses Chords & Tabs

 

2 Bloody Horses Chords & Tabs

Metallica Chords & Tabs

Version: 1 Type: Tab 4 ratings
1 star 2 stars 3 stars 4 stars 5 stars
comments

2 Bloody Horses Tab

Song title: 2 bloody horses
artist: Metallica

riff 1.
----------------------------------
----------------------------------
----------------2-----3-----------   2 times
--2------4------2-----3------4----
--2------4------0-----1------4----
--0------2-------------------2----

[ Tab from: http://www.guitartabs.cc/tabs/m/metallica/2_bloody_horses_tab.html ]
riff 2.
----------------------------------
----------------------------------
----------------------------------
----7-7------4----2--2------------
----7-7------4----2--2------------
----5-5------2----0--0------------


solo.
----12---------14-----------------
---------16------------14----13---
----------------------------------
----------------------------------
----------------------------------
----------------------------------


-----20/15------------------------
--------------13------------------
-------------------15---10--------
----------------------------------
----------------------------------
----------------------------------
Comments