Metal Church - Line Of Death Chords & Tabs

 

Line Of Death Chords & Tabs

Metal Church Chords & Tabs

Version: 1 Type: Tab 0 ratings
1 star 2 stars 3 stars 4 stars 5 stars
comments

Line Of Death Tab

   
-----------------------------------------------------------------------------
                       Line Of Death - Metal Church
-----------------------------------------------------------------------------

By: Rattlehead666



Riff 1 (Intro)

E|-------------------------------------------------------------------------|
B|-------------------------------------------------------------------------|
G|-------------------------------------------------------------------------|
D|---6-----5-4---5-4---5-3-2-------6-----5-4---5-4---5-3-2-----------------|
A|---4-----3-2---3-2---3-1-0-------4-----3-2---3-2---3-1-0-----------------|
E|-------------------------------------------------------------------------|


Riff 2 (Before Verse)
[ Tab from: http://www.guitartabs.cc/tabs/m/metal_church/line_of_death_tab.html ]
E|-------------------------------------------------------------------------|
B|-------------------------------------------------------------------------|
G|-------------------------------------------------------------------------|
D|-------------------------------------------------------------------------|
A|---2-----2-----5-7---2-----2-----8-7--2-----2-----5-7---2-----2-----8-7--|
E|---0-000-0-000-3-5---0-000-0-000-6-5--0-000-0-000-3-5---0-000-0-000-6-5--|
       ...   ...         ...   ...              ...         ...   ...

Riff 3 (Verse)

E|-------------------------------------------------------------------------|
B|-------------------------------------------------------------------------|
G|-------------------------------------------------------------------------|
D|-------------------------------------------------------------------------|
A|---2-----2-----5-7---2-----2-----8-7--2-----2-----5-7--7777-5555---------|
E|---0-000-0-000-3-5---0-000-0-000-6-5--0-000-0-000-3-5--5555-3333---------|
       ...   ...         ...   ...              ...      .... ....

Riff 4 (Chorus)

E|-------------------------------------|
B|-------------------------------------|
G|-------------------------------------|
D|--6---8---6--4-3-2---6---8---6--4-2--|
A|--4---6---4--2-1-0---4---6---4--2-0--|
E|-------------------------------------|


Riff 4A

E|-------------|
B|-------------|
G|-------------|
A|---6---6-4-2-|
D|-2-4-2-4-2-0-|
E|-0---0-------|


Riff 5

E|---------------------------|
B|---------------------------|
G|---------------------------|
D|---------------------------|
A|---------------------------|
E|---3-2-1-0-0-0-0-0-0-0-0---|
     . . . . . . . . . . .
Comments