Metal Church - In The Blood Chords & Tabs

 

In The Blood Chords & Tabs

Metal Church Chords & Tabs

Version: 1 Type: Bass Tab 0 ratings
1 star 2 stars 3 stars 4 stars 5 stars
comments

In The Blood Bass Tab

Standard Tuning

G||-----------------------------------------------|
D||----------------------------------------6------|
A||-6--9--6----6--9--6----6--9--6----6--9--4------| 
E||-4--7--4----4--7--4----4--7--4----4--7---------|

|-----------------------------------------------|
|----------------------------------------6------|
|-6--9--6----6--9--6----6--9--6----6--9--4------| 
|-4--7--4----4--7--4----4--7--4----4--7---------|

|--------------------------------|
|-------------------------4-4----|
|-2--2-2-2-2-2-2-2-2-2-2--2-2----| 
|-0--0-0-0-0-0-0-0-0-0-0---------|

|--------------------------------|
|-------------------------4-4----|
|-2--2-2-2-2-2-2-2-2-2-2--2-2----| 
|-0--0-0-0-0-0-0-0-0-0-0---------|

|------------------------------------------------------|
|-----------------7-7-7-7------------------7-7--4-4----|
|-6--6-6-6-6-6-6--5-5-5-5--6--6-6-6-6-6-6--5-5--2-2----| 
|-4--4-4-4-4-4-4-----------4--4-4-4-4-4-4--------------|

|----------------------------------|
|-7-----7-7-7-----6-----6-6-6-6----|
|-5-----5-5-5-----4-----4-4-4-4----| 
|----------------------------------|

|----------------------------------|
|-7-----7-7-7-----6-----6-6-6-6----|
|-5-----5-5-5-----4-----4-4-4-4----| 
|----------------------------------|

|----------------------------------|
|-7-----7-7-7-----6-----6-6-6-6----|
|-5-----5-5-5-----4-----4-4-4-4----| 
|----------------------------------|

|----------------------------------|
|-7-----7-7-7-----6-----6-6-6-6----|
|-5-----5-5-5-----4-----4-4-4-4----| 
|----------------------------------|

|----------------------------------------------------------------------|
|-4-4--------------------------------------------------------------4-4-|
|-2-2--6--6-6-6-6-6-6-6-6-6-6-6-6-6--6--6-6-6-6-6-6-6-6-6-6-6-6-6--2-2-| 
|------4--4-4-4-4-4-4-4-4-4-4-4-4-4--4--4-4-4-4-4-4-4-4-4-4-4-4-4------|

|--------------------------------------------------------|
|-4-4---------------------------4-4----------------------|
|-2-2--6--6-6-6-6-6-6-6-6-6-6---2-2--2---2----2-----2----| 
|------4--4-4-4-4-4-4-4-4-4-4--------0-0-0-00-0-000-0----|
[ Tab from: http://www.guitartabs.cc/tabs/m/metal_church/in_the_blood_btab.html ]
|--------------------------------------------------------|
|-4-4---------------------------4-4----------------------|
|-2-2--6--6-6-6-6-6-6-6-6-6-6---2-2--2---2----2-----2----| 
|------4--4-4-4-4-4-4-4-4-4-4--------0-0-0-00-0-000-0----|

|--------------------------------------------------------|
|-4-4---------------------------4-4----------------------|
|-2-2--6--6-6-6-6-6-6-6-6-6-6---2-2--2---2----2-----2----| 
|------4--4-4-4-4-4-4-4-4-4-4--------0-0-0-00-0-000-0----|

|--------------------------------------------------------|
|-4-4---------------------------4-4----------------------|
|-2-2--6--6-6-6-6-6-6-6-6-6-6---2-2--2---2----2-----2----| 
|------4--4-4-4-4-4-4-4-4-4-4--------0-0-0-00-0-000-0----|

|--------------------------------------------------------|
|-4-4---------------------------4-4----------------------|
|-2-2--6--6-6-6-6-6-6-6-6-6-6---2-2--2---2----2-----2----| 
|------4--4-4-4-4-4-4-4-4-4-4--------0-0-0-00-0-000-0----|

|--------------------------------------------------------|
|-4-4---------------------------4-4----------------------|
|-2-2--6--6-6-6-6-6-6-6-6-6-6---2-2--2---2----2-----2----| 
|------4--4-4-4-4-4-4-4-4-4-4--------0-0-0-00-0-000-0----|

|--------------------------------------------------------------|
|-4-4---------------------------4-4----------------------------|
|-2-2--6--6-6-6-6-6-6-6-6-6-6---2-2--2--2-2-2-2-2-2-2-2-2-2----| 
|------4--4-4-4-4-4-4-4-4-4-4--------0--0-0-0-0-0-0-0-0-0-0----|

|--------------------------------------------------------------|
|-4-4---------------------------4-4----------------------------|
|-2-2--6--6-6-6-6-6-6-6-6-6-6---2-2--2--2-2-2-2-2-2-2-2-2-2----| 
|------4--4-4-4-4-4-4-4-4-4-4--------0--0-0-0-0-0-0-0-0-0-0----|

|------------------------------------|
|-4-4-------4-------4-------4--------|
|-2-2--0-0--2--3-3--2--4-4--2--5-5---| 
|------2-2-----1-1-----2-2-----3-3---|

|------------------------------------|
|-4-4-------4-------4-------4--------|
|-2-2--0-0--2--3-3--2--4-4--2--5-5---| 
|------2-2-----1-1-----2-2-----3-3---|

Outro
|------------||
|------------||
|-5--2-2-2---||
|-3--0-0-0---||
Comments