Metal Church - Betrayed Chords & Tabs

 

Betrayed Chords & Tabs

Metal Church Chords & Tabs

Version: 1 Type: Tab 0 ratings
1 star 2 stars 3 stars 4 stars 5 stars
comments

Betrayed Tab

   
                                    BETRAYED
                           As recorded by Metal Church
                       (From the 1991 Album HUMAN FACTOR)

Words and Music by Vanderhoof & Howe


Gtr I (E A D G B E)  
Gtr II (E A D G B E) 

 Intro
  Q=132
  F#5   (F#b5)E5             F#5   F#b5  E5
 4/4
  Gtr I
|----------------|---------|----------------|-----|
|----------------|---------|----------------|-----|
|----------------|---------|----------------|-----|
|----------------|---------|----------------|-----|
|-4-4-4-3-3-3-2--|---------|-4-4-4-3-3-3-2--|-----|
|-2-2-2-2-2-2-0--|---------|-2-2-2-2-2-2-0--|-----|


  F#5   F#b5  E5                         F#5   F#b5  E5
                                         Gtrs I, II
                                                                             3x
|----------------|-------------------||-----------------|--------------------||
|----------------|-------------------||o----------------|-------------------o||
|----------------|-------------------||-----------------|--------------------||
|----------------|-------------------||-----------------|--------------------||
|-4-4-4-3-3-3-2--|-----2-----2-----2-||o-4-4-4-3-3-3-2--|-----2-----2-----2-o||
|-2-2-2-2-2-2-0--|-3h4---3-4---3-4---||--2-2-2-2-2-2-0--|-3h4---3-4---3-4----||


                  Verse
  F#5   F#b5  E5   G5                        Bb5     G5
                     PM|   PM|   PM--|   PM|           PM|   PM|   PM
|----------------|-----------------|---------------|-----------------|
|----------------|-----------------|---------------|-----------------|
|----------------|-----------------|---------------|-----------------|
|----------------|-----------------|---------3--3--|-----------------|
|-4-4-4-3-3-3-2--|-5-----5-----5---|---5-----1--1--|-5-----5-----5---|
|-2-2-2-2-2-2-0--|-3-0-0-3-0-0-3-0-|-0-3-0-0-------|-3-0-0-3-0-0-3-0-|


          Bb5     G5                        Bb5     G5
  Gtr I
  PM  PM|           PM|   PM|   PM--|   PM|           PM|   PM|   PM
|---------------|-----------------|---------------|-----------------|
|---------------|-----------------|---------------|-----------------|
|---------------|-----------------|---------------|-----------------|
|---------3-----|-----------------|---------3--3--|-----------------|
|---5-----1-----|-5-----5-----5---|---5-----1--1--|-5-----5-----5---|
|-0-3-0-0-------|-3-0-0-3-0-0-3-0-|-0-3-0-0-------|-3-0-0-3-0-0-3-0-|
|
| Gtr II
| PM  PM| ~  ~      PM|   PM|   PM--|   PM|           PM|   PM|   PM
|---------7--7--|-----------------|---------------|-----------------|
|---------8--8--|-----------------|---------------|-----------------|
|---------------|-----------------|---------------|-----------------|
|---------------|-----------------|---------3--3--|-----------------|
|---5-----------|-5-----5-----5---|---5-----1--1--|-5-----5-----5---|
|-0-3-0-0-------|-3-0-0-3-0-0-3-0-|-0-3-0-0-------|-3-0-0-3-0-0-3-0-|


          BbB5C5   Ab5                       Bb5     Ab5
  PM  PM|            PM|   PM|   PM--|   PM|           PM|   PM|   PM
|----------------|-----------------|---------------|-----------------|
|----------------|-----------------|---------------|-----------------|
|----------------|-----------------|---------------|-----------------|
|---------3-4-5--|-----------------|---------3--3--|-----------------|
|---5-----1-2-3--|-6-----6-----6---|---6-----1--1--|-6-----6-----6---|
|-0-3-0-0--------|-4-1-1-4-1-1-4-1-|-1-4-1-1-------|-4-1-1-4-1-1-4-1-|
|
| PM  PM|            PM|   PM|   PM--|   PM|           PM|   PM|   PM
|----------------|-----------------|---------------|-----------------|
|----------------|-----------------|---------------|-----------------|
|----------------|-----------------|---------------|-----------------|
|---------3-4-5--|-----------------|---------3--3--|-----------------|
|---5-----1-2-3--|-6-----6-----6---|---6-----1--1--|-6-----6-----6---|
|-0-3-0-0--------|-4-1-1-4-1-1-4-1-|-1-4-1-1-------|-4-1-1-4-1-1-4-1-|


          Bb5      Ab5                       Bb5     Ab5
  Gtrs I, II
  PM  PM|            PM|   PM|   PM--|   PM|           PM|   PM|   PM
|----------------|-----------------|---------------|-----------------|
|----------------|-----------------|---------------|-----------------|
|----------------|-----------------|---------------|-----------------|
|---------3-3-3--|-----------------|---------3--3--|-----------------|
|---6-----1-1-1--|-6-----6-----6---|---6-----1--1--|-6-----6-----6---|
|-1-4-1-1--------|-4-1-1-4-1-1-4-1-|-1-4-1-1-------|-4-1-1-4-1-1-4-1-|


                  Chorus
          Bb5      B5    D5            B5    D5
  PM  PM|            PM|                 PM|
|----------------|-------------------|-------------------|
|----------------|-------------------|-------------------|
|----------------|-------------------|-------------------|
|---------3-3-3--|-4-----7-(7)-------|-4-----7-(7)-------|
|---6-----1-1-1--|-2-2-2-5-(5)-2-2-0-|-2-2-2-5-(5)-2-2-2-|
|-1-4-1-1--------|-------------------|-------------------|


  A5    C5    A5        F#5   F#b5  E5
                                                            4x
|-------------------||-----------------|--------------------||
|-------------------||o----------------|-------------------o||
|-------------------||-----------------|--------------------||
|-------5-(5)-------||-----------------|--------------------||
|-7-----3-(3)-7-7-7-||o-4-4-4-3-3-3-2--|-----2-----2-----2-o||
|-5-5-5-------5-5-5-||--2-2-2-2-2-2-0--|-3h4---3-4---3-4----||


 Verse
  G5                        Bb5       G5                          Bb5
  Gtr I
    PM|   PM|   PM--|   PM|               PM|   PM|   PM--|   PM|
|-----------------|-----------------|-------------------|--------------|
|-----------------|-----------------|-------------------|--------------|
|-----------------|-----------------|-------------------|--------------|
|-----------------|----------3---3--|-------------------|---------3----|
|-5-----5-----5---|---5------1---1--|--5------5-----5---|---5-----1----|
|-3-0-0-3-0-0-3-0-|-0-3-0-0---------|--3--0-0-3-0-0-3-0-|-0-3-0-0------|
|
| Gtr II
|   PM|   PM|   PM--|   PM|                               PM  PM|
|-----------------|---------16--16--|-16\---------------|--------------|
|-----------------|---------15--15--|-15\---------------|--------------|
|-----------------|-----------------|-------------------|--------------|
|-----------------|-----------------|-------------------|---------3----|
|-5-----5-----5---|---5-------------|-------------------|---5-----1----|
|-3-0-0-3-0-0-3-0-|-0-3-0-0---------|-------------------|-0-3-0-0------|


  G5                        Bb5     G5
  Gtrs I, II
    PM|   PM|   PM--|   PM|           PM|   PM|   PM
|-----------------|---------------|-----------------|
|-----------------|---------------|-----------------|
|-----------------|---------------|-----------------|
|-----------------|---------3--3--|-----------------|
|-5-----5-----5---|---5-----1--1--|-5-----5-----5---|
|-3-0-0-3-0-0-3-0-|-0-3-0-0-------|-3-0-0-3-0-0-3-0-|


          BbB5C5   Ab5                       Bb5     Ab5
  PM  PM|            PM|   PM|   PM--|   PM|           PM|   PM|   PM
|----------------|-----------------|---------------|-----------------|
|----------------|-----------------|---------------|-----------------|
|----------------|-----------------|---------------|-----------------|
|---------3-4-5--|-----------------|---------3--3--|-----------------|
|---5-----1-2-3--|-6-----6-----6---|---6-----1--1--|-6-----6-----6---|
|-0-3-0-0--------|-4-1-1-4-1-1-4-1-|-1-4-1-1-------|-4-1-1-4-1-1-4-1-|


          Bb5      Ab5                       Bb5     Ab5
  PM  PM|            PM|   PM|   PM--|   PM|           PM|   PM|   PM
|----------------|-----------------|---------------|-----------------|
|----------------|-----------------|---------------|-----------------|
|----------------|-----------------|---------------|-----------------|
|---------3-3-3--|-----------------|---------3--3--|-----------------|
|---6-----1-1-1--|-6-----6-----6---|---6-----1--1--|-6-----6-----6---|
|-1-4-1-1--------|-4-1-1-4-1-1-4-1-|-1-4-1-1-------|-4-1-1-4-1-1-4-1-|


          Bb5      B5    D5            B5    D5
  PM  PM|            PM|                 PM|
|----------------|-------------------|-------------------|
|----------------|-------------------|-------------------|
|----------------|-------------------|-------------------|
|---------3-3-3--|-4-----7-(7)-------|-4-----7-(7)-------|
|---6-----1-1-1--|-2-2-2-5-(5)-2-2-0-|-2-2-2-5-(5)-2-2-2-|
|-1-4-1-1--------|-------------------|-------------------|


  A5    C5    A5        F#5   F#b5  E5
                                                            4x
|-------------------||-----------------|--------------------||
|-------------------||o----------------|-------------------o||
|-------------------||-----------------|--------------------||
|-------5-(5)-------||-----------------|--------------------||
|-7-----3-(3)-7-7-7-||o-4-4-4-3-3-3-2--|-----2-----2-----2-o||
|-5-5-5-------5-5-5-||--2-2-2-2-2-2-0--|-3h4---3-4---3-4----||


  F#5   F#b5  E5     N.C.(Em)
                     PM|       PM|         PM|     PM------------|
|----------------||----------------------|--------------------------||
|----------------||o---------------------|-------------------------o||
|----------------||----------------------|--------------------------||
|----------------||----------------------|--------------------------||
|-4-4-4-3-3-3-2--||o---------------------|-------------------------o||
|-2-2-2-2-2-2-0--||--3-3-0-0-3-3-3-0-0-3-|-3-3-0-0-3-3-5-5-5-5-5-5--||


 Bridge
  N.C.(Em)
  Gtr I
  PM|       PM|         PM|     PM-----------------
|---------------------|---------------------------|
|---------------------|---------------------------|
|---------------------|---------------------------|
|---------------------|---------------------------|
|---------------------|---------------------------|
|-3-3-0-0-3-3-3-0-0-3-|-3-3-0-0-3--3--5-5-5-5-5-5-|
|
| Gtr II
| ~~~~~~~~~~~~                     ~~~~~~~~~~~~~~~~
|---------------------|---------------------------|
|---------------------|---------------------------|
|---------------------|---------------------------|
|-----------5---------|-5-5-5-5-7-(7)-------------|
|-7-------------------|---------------------------|
|---------------------|---------------------------|


 ---|       PM|         PM|     PM------------|
|---------------------|-------------------------|
|---------------------|-------------------------|
|---------------------|-------------------------|
|---------------------|-------------------------|
|---------------------|-------------------------|
|-3-3-0-0-3-3-3-0-0-3-|-3-3-0-0-3-3-5-5-5-5-5-5-|
|
|~~~~~~~~~~~~~                    ~
|---------------------|-------------------------|
|---------------------|-------------------------|
|-----------5---------|-5-5-5-5-5---------------|
|-7-------------------|-----------5-------------|
|---------------------|-------------------------|
|---------------------|-------------------------|


  N.C.(Am)
  ~~~~~~~~~~~~~~
|------------------------|---------------------------|
|------------------------|---------------------------|
|------------------------|---------5-7-5-------------|
|------------5\----------|---------------7---7-------|
|-7----------------------|---------------------------|
|------------------------|---------------------------|
|
| PM|        PM-|          PM|           PM|
|------------------------|---------------------------|
|------------------------|---------------------------|
|------------------------|---------------------------|
|------------------------|---------------------------|
|-3-3-0-0--3-3--3-0-0--3-|-3-3-0-0---3-3-3-3-5-5-5-5-|
|------------------------|---------------------------|


  ~~~~~~~~~~~~~
|-----------------------|----------------------------------|
|-----------------------|----------------------------------|
|------------5----------|-----------5-[7]b9r(7)---5--------|
|-7---------------------|-----7---7------------------------|
|-----------------------|----------------------------------|
|-----------------------|----------------------------------|
|
| PM|        PM|          PM|                PM-|
|-----------------------|----------------------------------|
|-----------------------|----------------------------------|
|-----------------------|----------------------------------|
|-----------------------|----------------------------------|
|-3-3-0-0--3-3-3-0-0--3-|-3-3-0-0---3--3-----3--3-5-5-5-5--|
|-----------------------|----------------------------------|


  N.C.(Em)
  PM|       PM|         PM|     PM---------------
|---------------------|-------------------------|
|---------------------|-------------------------|
|---------------------|-------------------------|
|---------------------|-------------------------|
|---------------------|-------------------------|
|-3-3-0-0-3-3-3-0-0-3-|-3-3-0-0-3-3-5-5-5-5-5-5-|
|
| ~~~~~~~~~~~~
|---------------------|-------------------------|
|---------------------|-------------------------|
|---------------------|-------------7-----------|
|-----------5---------|---------5-5-------------|
|-7-------------------|-----7-7-----------------|
|---------------------|-------------------------|


 ---|       PM|         PM|     PM------------|
|---------------------|-------------------------|
|---------------------|-------------------------|
|---------------------|-------------------------|
|---------------------|-------------------------|
|---------------------|-------------------------|
|-3-3-0-0-3-3-3-0-0-3-|-3-3-0-0-3-3-5-5-5-5-5-5-|
|
| ~~~~~~~~~~~~                    ~
|---------------------|-------------------------|
|---------------------|-------------------------|
|---------------------|-------------------------|
|-----------5---------|---------5---------------|
|-7-------------------|-----7-7---7-------------|
|---------------------|-------------------------|


  N.C.(Am)
  ~~~~~~~~~~~~~
|-----------------------|-----------------------------|
|-----------------------|-----------------------------|
|-----------------------|-----------5-(5)-------------|
|------------5----------|---------7-----------7-------|
|-7---------------------|-----------------------------|
|-----------------------|-----------------------------|
|
| PM|        PM|          PM|             PM|
|-----------------------|-----------------------------|
|-----------------------|-----------------------------|
|-----------------------|-----------------------------|
|-----------------------|-----------------------------|
|-3-3-0-0--3-3-3-0-0--3-|-3-3-0-0---3--3--3-3-5-5-5-5-|
|-----------------------|-----------------------------|

[ Tab from: http://www.guitartabs.cc/tabs/m/metal_church/betrayed_tab.html ]
  ~~~~~~~~~~~~~                          ~~~
|-----------------------|------------------------------|
|-----------------------|------------------------------|
|------------5----------|-----------5-5-[7]------------|
|-7---------------------|-----7---7--------------------|
|-----------------------|------------------------------|
|-----------------------|------------------------------|
|
| PM|        PM|          PM|            PM-|
|-----------------------|------------------------------|
|-----------------------|------------------------------|
|-----------------------|------------------------------|
|-----------------------|------------------------------|
|-3-3-0-0--3-3-3-0-0--3-|-3-3-0-0---3-3--3--3-5-5-5-5--|
|-----------------------|------------------------------|


                                       Guitar Solo
  D5C#5   C5         C5B5    Bb5        N.C.(Em)
|------------------|------------------|-------0-------0---------|
|------------------|------------------|-------------------0-0-0-|
|------------------|------------------|-4---------4-------4-4-4-|
|-7-6-(6)-5-(5)----|-5-4-(4)-3-(3)----|-------------------------|
|-5-4-(4)-3-(3)----|-3-2-(2)-1-(1)----|-------------------------|
|------------------|------------------|-------------------------|
|
|                                       PM|           PM|
|------------------|------------------|-------------------------|
|------------------|------------------|-------------------------|
|------------------|------------------|-------------------------|
|-7-6-(6)-5-(5)----|-5-4-(4)-3-(3)----|-------------------------|
|-5-4-(4)-3-(3)----|-3-2-(2)-1-(1)----|-------------------------|
|------------------|------------------|-3-3-0---0---3-3-3-0-0-3-|


|-----0-0-----0-0-----0-----0-0-----0-0-------|
|-3s5-----3s5-----3s5---3s5-----3s5-----0-0---|
|---------------------------------------------|
|---------------------------------------------|
|---------------------------------------------|
|---------------------------------------------|
|
|   PM|             PM--------------------|
|---------------------------------------------|
|---------------------------------------------|
|---------------------------------------------|
|---------------------------------------------|
|---------------------------------------------|
|---3-3-0-----0-----3-----3---5---5-5-5-5-5---|


|-12---------12---------------------------------------------------|
|----15b17------15b17==(15)-(15)-(15)-(15)-15b17r15---------------|
|-----------------------------------------------------12b14-------|
|--------------------------------------------------------------14-|
|-----------------------------------------------------------14----|
|-----------------------------------------------------------------|
|
|  PM|                             PM-|
|-----------------------------------------------------------------|
|-----------------------------------------------------------------|
|-----------------------------------------------------------------|
|-----------------------------------------------------------------|
|-----------------------------------------------------------------|
|--3--3----0-----0-------3---------3----3---0-------0--------3----|


|-------------------------------------|
|----------0--------------------------|
|-14-12-14---14-12-14-12-------12s16\-|
|-------------------------------------|
|-------------------------------------|
|-------------------------------------|
|
|  PM|        PM------------------|
|-------------------------------------|
|-------------------------------------|
|-------------------------------------|
|-------------------------------------|
|-------------------------------------|
|--3--3--0-0--3-----3--5-5-5-5--5--5--|


  D5C#5   C5         C5B5    Bb5         N.C.(Em)
                                         PM|       PM--|
|------------------|-------------------|-------------------------|
|------------------|-------------------|-------------------------|
|------------------|-------------------|-------------------------|
|-7-6-(6)-5-(5)----|-5-4-(4)-3-(3)-----|-------------------------|
|-5-4-(4)-3-(3)----|-3-2-(2)-1-(1)-----|-------------------------|
|------------------|-------------------|-3-3-0-0-3-3---3---0-0-3-|
|
|                                              ~             ~
|------------------|-------------------|-------------------------|
|------------------|-------------------|---------------------8---|
|------------------|-------------------|-----------9p7-----------|
|-7-6-(6)-5-(5)----|-------------------|-------5---------9-9-----|
|-5-4-(4)-3-(3)----|------------2s=9\--|-7p5---------------------|
|------------------|-------------------|-----7-------------------|


   PM---|              PM----------------|
|--------------------------------------------|
|--------------------------------------------|
|--------------------------------------------|
|--------------------------------------------|
|--------------------------------------------|
|--3-----3-0---0-------3---3--5-5-5-5-5--5---|
|
|                 ~~~~~~~~~~~~
|--------------------------------------------|
|-10b12r10-8---8-10b12---[10]---------x/-----|
|------------9------------------------x/-----|
|--------------------------------------------|
|--------------------------------------------|
|--------------------------------------------|


  N.C.    (Em)
   PM---|                     PM|
|----------------------------------------------------|
|----------------------------------------------------|
|----------------------------------------------------|
|----------------------------------------------------|
|----------------------------------------------------|
|--3----3-0--0-------3--------3--3--0-----0-----3----|
|
|-----------12h14p12------12-15p14-12----14p12----12-|
|-15b17----------------15-------------15-------15----|
|----------------------------------------------------|
|----------------------------------------------------|
|----------------------------------------------------|
|----------------------------------------------------|


   PM|               PM----------------------|
|-----------------------------------------------|
|-----------------------------------------------|
|-----------------------------------------------|
|-----------------------------------------------|
|-----------------------------------------------|
|--3--3--0-----0-----3-----3-----5--5--5-5-5-5--|
|
|                                      ~~
|-----------------------------------------------|
|-15p14-12----14p12----12-----------------------|
|----------15-------15----15p14-12-14-12--------|
|-----------------------------------------------|
|-----------------------------------------------|
|-----------------------------------------------|


  D5C#5   C5         C5B5    Bb5        D5C#5   C5         C5B5    Bb5
  Gtrs I, II
|------------------|------------------|------------------|------------------|
|------------------|------------------|------------------|------------------|
|------------------|------------------|------------------|------------------|
|-7-6-(6)-5-(5)----|-5-4-(4)-3-(3)----|-7-6-(6)-5-(5)----|-5-4-(4)-3-(3)----|
|-5-4-(4)-3-(3)----|-3-2-(2)-1-(1)----|-5-4-(4)-3-(3)----|-3-2-(2)-1-(1)----|
|------------------|------------------|------------------|------------------|


  N.C.(E)
|-----------------|-----------------|
|-----------------|-----------------|
|-----------------|-----------------|
|-----------------|-----------------|
|-----2-----2-----|-2-----2-----2---|
|-3-4---3-4---3-4-|---3-4---3-4---3-|


                    F#5   F#b5  E5
|-----------------|----------------|------------||
|-----------------|----------------|------------||
|-----------------|----------------|------------||
|-----------------|----------------|------------||
|---2-----2-----2-|-4-4-4-3-3-3-2--|------------||
|-4---3-4---3-4---|-2-2-2-2-2-2-0--|-------19\--||


 Verse
  G5                        Bb5       G5                        Bb5
  Gtr I
    PM|   PM|   PM--|   PM|             PM|   PM|   PM--|   PM|
|-----------------|-----------------|-----------------|-----------------|
|-----------------|-----------------|-----------------|-----------------|
|-----------------|-----------------|-----------------|-----------------|
|-----------------|----------3---3--|-----------------|----------3------|
|-5-----5-----5---|---5------1---1--|-5-----5-----5---|---5------1------|
|-3-0-0-3-0-0-3-0-|-0-3-0-0---------|-3-0-0-3-0-0-3-0-|-0-3-0-0---------|
|
| Gtr II
|   PM|   PM|   PM               ~~     PM|   PM|   PM               ~~
|-----------------|-----------------|-----------------|-----------------|
|-----------------|---------12--12--|-----------------|---------12--12--|
|-----------------|---------12--12--|-----------------|---------12--12--|
|-----------------|-----------------|-----------------|-----------------|
|-5-----5-----5---|-----------------|-5-----5-----5---|-----------------|
|-3-0-0-3-0-0-3-0-|-----------------|-3-0-0-3-0-0-3-0-|-----------------|


  G5                        Bb5     G5                        BbB5C5
  Gtrs I, II
    PM|   PM|   PM--|   PM|           PM|   PM|   PM--|   PM|
|-----------------|---------------|-----------------|----------------|
|-----------------|---------------|-----------------|----------------|
|-----------------|---------------|-----------------|----------------|
|-----------------|---------3--3--|-----------------|---------3-4-5--|
|-5-----5-----5---|---5-----1--1--|-5-----5-----5---|---5-----1-2-3--|
|-3-0-0-3-0-0-3-0-|-0-3-0-0-------|-3-0-0-3-0-0-3-0-|-0-3-0-0--------|


  Ab5                       Bb5     Ab5
  Gtr I
    PM|   PM|   PM--|   PM|           PM|   PM|   PM-
|-----------------|---------------|-----------------|
|-----------------|---------------|-----------------|
|-----------------|---------------|-----------------|
|-----------------|---------3--3--|-----------------|
|-6-----6-----6---|---6-----1--1--|-6-----6-----6---|
|-4-1-1-4-1-1-4-1-|-1-4-1-1-------|-4-1-1-4-1-1-4-1-|
|
| Gtr II
|   PM|   PM|   PM--|   PM|           PM|   PM|   PM
|-----------------|---------------|-----------------|
|-----------------|---------------|-----------------|
|-----------------|---------------|-----------------|
|-----------------|---------3--3--|-----------------|
|-6-----6-----6---|---6-----1--1--|-6-----6-----6---|
|-4-1-1-4-1-1-4-1-|-1-4-1-1-------|-4-1-1-4-1-1-4-1-|


          Bb5      Ab5
 -|   PM|            PM|   PM|   PM
|----------------|-----------------|
|----------------|-----------------|
|----------------|-----------------|
|---------3-3-3--|-----------------|
|---6-----1-1-1--|-6-----6-----6---|
|-1-4-1-1--------|-4-1-1-4-1-1-4-1-|
|
|             ~      PM|   PM|   PM
|----------------|-----------------|
|----------------|-----------------|
|---------1---1--|-----------------|
|----------------|-----------------|
|----------------|-6-----6-----6---|
|----------------|-4-1-1-4-1-1-4-1-|


          Bb5     Ab5                       Bb5
  PM  PM|           PM|   PM|   PM      PM|
|---------------|-----------------|----------------|
|---------------|-----------------|----------------|
|---------------|-----------------|----------------|
|---------3--3--|-----------------|---------3-3-3--|
|---6-----1--1--|-6-----6-----6---|---6-----1-1-1--|
|-1-4-1-1-------|-4-1-1-4-1-1-4-1-|-1-4-1-1--------|
|
| PM  PM|           PM|   PM|   PM--|   PM|
|---------------|-----------------|----------------|
|---------------|-----------------|----------------|
|---------------|-----------------|----------------|
|---------3--3--|-----------------|---------3-3-3--|
|---6-----1--1--|-6-----6-----6---|---6-----1-1-1--|
|-1-4-1-1-------|-4-1-1-4-1-1-4-1-|-1-4-1-1--------|


 Chorus
  B5    D5            B5    D5
  Gtrs I, II
    PM|                 PM|
|-------------------|-------------------|
|-------------------|-------------------|
|-------------------|-------------------|
|-4-----7-(7)-------|-4-----7-(7)-------|
|-2-2-2-5-(5)-2-2-0-|-2-2-2-5-(5)-2-2-2-|
|-------------------|-------------------|


  A5    C5    A5      F#5   F#b5  E5
|-------------------|----------------|---------------------|
|-------------------|----------------|---------------------|
|-------------------|----------------|---------------------|
|-------5-(5)-------|----------------|---------------------|
|-7-----3-(3)-7-7-7-|-4-4-4-3-3-3-2--|-----2-----2-----2---|
|-5-5-5-------5-5-5-|-2-2-2-2-2-2-0--|-3h4---3-4---3-4-----|


  F#5   F#b5  E5                         F#5   F#b5  E5
  Gtr I
|----------------|---------------------|----------------|---------------------|
|----------------|---------------------|----------------|---------------------|
|----------------|---------------------|----------------|---------------------|
|----------------|---------------------|----------------|---------------------|
|-4-4-4-3-3-3-2--|-------2-----2-----2-|-4-4-4-3-3-3-2--|-------2-----2-----2-|
|-2-2-2-2-2-2-0--|--3h=4---3-4---3-4---|-2-2-2-2-2-2-0--|--3h=4---3-4---3-4---|
|
| Gtr II
|             ~                                      ~
|----------------|---------------------|----------------|---------------------|
|-------------9--|-(9)-----------------|-------------9--|-(9)-----------------|
|-------------9--|-(9)-----------------|-------------9--|-(9)-----------------|
|-------------9--|-(9)-----------------|-------------9--|-(9)-----------------|
|----------------|---------------------|----------------|---------------------|
|----------------|---------------------|----------------|---------------------|


  F#5   F#b5  E5
|----------------|---------------------|
|----------------|---------------------|
|----------------|---------------------|
|----------------|---------------------|
|-4-4-4-3-3-3-2--|-------2-----2-----2-|
|-2-2-2-2-2-2-0--|--3h=4---3-4---3-4---|
|
|             ~
|----------------|---------------------|
|-------------9--|-(9)-----------------|
|-------------9--|-(9)-----------------|
|-------------9--|-(9)-----------------|
|----------------|---------------------|
|----------------|---------------------|


  F#5   F#b5  E5             F#5   F#b5  E5             F#5   F#b5  E5
  Gtrs I, II
|----------------|---------|----------------|---------|----------------*|
|----------------|---------|----------------|---------|----------------*|
|----------------|---------|----------------|---------|----------------*|
|----------------|---------|----------------|---------|----------------*|
|-4-4-4-3-3-3-2--|---------|-4-4-4-3-3-3-2--|---------|-4-4-4-3-3-3-2--*|
|-2-2-2-2-2-2-0--|---------|-2-2-2-2-2-2-0--|---------|-2-2-2-2-2-2-0--*|


Tablature Legend
----------------
 h   - hammer-on
 p   - pull-off
 b   - bend
 pb  - pre-bend
 r   - bend release (if no number after the r, then release immediately)
 /\  - slide into or out of (from/to "nowhere")
 s   - legato slide
 S   - shift slide
  - natural harmonic
[n]  - artificial harmonic
n(n) - tapped harmonic
 ~   - vibrato
 tr  - trill
 T   - tap
 TP  - trem. picking
 PM  - palm muting
\n/  - tremolo bar dip; n = amount to dip
 \n  - tremolo bar down
 n/  - tremolo bar up
/n\  - tremolo bar inverted dip
 =   - hold bend; also acts as connecting device for hammers/pulls
 <>  - volume swell (louder/softer)
 x   - on rhythm slash represents muted slash
 o   - on rhythm slash represents single note slash

Misc Legend
-----------
 |  - bar
||  - double bar
||o - repeat start
o|| - repeat end
*|  - double bar (ending)
 :  - bar (freetime)
 $  - Segno
 &  - Coda
Comments