Mest - Your Promise Chords & Tabs

 

Your Promise Chords & Tabs

Mest Chords & Tabs

Version: 2 Type: Tab 0 ratings
1 star 2 stars 3 stars 4 stars 5 stars
comments

Your Promise Tab

Author/Artist: Mest
Title: Your Promise
Album: Mest
Transcribed by: Kyle
Email: infected41@hotmail.com

Intro X1 (This May Look Confusing, But It's Very Easy)
-----------------------------------------------------------------------------|
-----------------------------------------------------------------------------|
-5/4/5/4/5/4/5/4/7/7/7/7/7/5/5/5/5/5/4/4/4/4/4/4/4/4/------------------------|
-x/x/x/x/x/x/x/x/x/x/x/x/x/x/x/x/x/x/x/x/x/x/x/x/x/x/------------------------|
-3/2/3/2/3/2/3/2/5/5/5/5/5/3/3/3/3/3/2/2/2/2/2/2/2/2/------------------------|
-----------------------------------------------------------------------------|


-----------------------------------------------------------------------------|
-----------------------------------------------------------------------------|
-9/9/9/9/5/5/5/5/4/4/4/4/4/4/4/4/12/12/12/12/5/5/5/5/4/4/4/4/4/4/4/4---------|
-x/x/x/x/x/x/x/x/x/x/x/x/x/x/x/x/x-/x-/x-/x-/x/x/x/x/x/x/x/x/x/x/x/x---------|
-7/7/7/7/3/3/3/3/2/2/2/2/2/2/2/2/10/10/10/10/3/3/3/3/2/2/2/2/2/2/2/2---------|
-----------------------------------------------------------------------------|

Verse 1- (First Part Of This There Is No Guitar)Palm Muted, Repeat As Necessary
-----------------------------------------------------------------------------|
-----------------------------------------------------------------------------|
-99999999999999--------------------------------------------------------------|
-99999999999999-33333333333333-----------------------------------------------|
-77777777777777-33333333333333-----------------------------------------------|
----------------11111111111111-----------------------------------------------|


-----------------------------------------------------------------------------|
-----------------------------------------------------------------------------|
-5/4/5/4/5/4/5/4/7/7/7/7/7/5/5/5/5/5/4/4/4/4/4/4/4/4/------------------------|
-x/x/x/x/x/x/x/x/x/x/x/x/x/x/x/x/x/x/x/x/x/x/x/x/x/x/------------------------|
-3/2/3/2/3/2/3/2/5/5/5/5/5/3/3/3/3/3/2/2/2/2/2/2/2/2/------------------------|
-----------------------------------------------------------------------------|


-----------------------------------------------------------------------------|
-----------------------------------------------------------------------------|
-9/9/9/9/5/5/5/5/4/4/4/4/4/4/4/4/12/12/12/12/5/5/5/5/4/4/4/4/4/4/4/4---------|
-x/x/x/x/x/x/x/x/x/x/x/x/x/x/x/x/x-/x-/x-/x-/x/x/x/x/x/x/x/x/x/x/x/x---------|
-7/7/7/7/3/3/3/3/2/2/2/2/2/2/2/2/10/10/10/10/3/3/3/3/2/2/2/2/2/2/2/2---------|
-----------------------------------------------------------------------------|
 Intro Again X1

-----------------------------------------------------------------------------|
-----------------------------------------------------------------------------|
-99999999999999--------------------------------------------------------------|
-99999999999999-33333333333333-----------------------------------------------|
-77777777777777-33333333333333-----------------------------------------------|
----------------11111111111111-----------------------------------------------|
 Verse 2 Palm Muted, Repeat

-----------------------------------------------------------------------------|
-----------------------------------------------------------------------------|
-----------------------------------------------------------------------------|
-55-55-55-5------------------------------------------------------------------|
-55-55-55-5------------------------------------------------------------------|
-33-33-33-3------------------------------------------------------------------|
 Pre Chorus Repeat
[ Tab from: http://www.guitartabs.cc/tabs/m/mest/your_promise_tab_ver_2.html ]
-----------------------------------------------------------------------------|
-----------------------------------------------------------------------------|
-55555555----------99999999--------------------------------------------------|
-55555555-33333333-99999999-55555555-----------------------------------------|
-33333333-33333333-77777777-55555555-----------------------------------------|
----------11111111----------33333333-----------------------------------------|
 Chorus Repeat As Necessary

-----------------------------------------------------------------------------|
-----------------------------------------------------------------------------|
-5/4/5/4/5/4/5/4/7/7/7/7/7/5/5/5/5/5/4/4/4/4/4/4/4/4/------------------------|
-x/x/x/x/x/x/x/x/x/x/x/x/x/x/x/x/x/x/x/x/x/x/x/x/x/x/------------------------|
-3/2/3/2/3/2/3/2/5/5/5/5/5/3/3/3/3/3/2/2/2/2/2/2/2/2/------------------------|
-----------------------------------------------------------------------------|


-----------------------------------------------------------------------------|
-----------------------------------------------------------------------------|
-9/9/9/9/5/5/5/5/4/4/4/4/4/4/4/4/12/12/12/12/5/5/5/5/4/4/4/4/4/4/4/4---------|
-x/x/x/x/x/x/x/x/x/x/x/x/x/x/x/x/x-/x-/x-/x-/x/x/x/x/x/x/x/x/x/x/x/x---------|
-7/7/7/7/3/3/3/3/2/2/2/2/2/2/2/2/10/10/10/10/3/3/3/3/2/2/2/2/2/2/2/2---------|
-----------------------------------------------------------------------------|
 The Intro Again

-----------------------------------------------------------------------------|
-----------------------------------------------------------------------------|
-99999999999999--------------------------------------------------------------|
-99999999999999-33333333333333-----------------------------------------------|
-77777777777777-33333333333333-----------------------------------------------|
----------------11111111111111-----------------------------------------------|
 Verse 3 (This Time You Don't Palm Mute The Last Set Of Chords On The Last Set)

-----------------------------------------------------------------------------|
-----------------------------------------------------------------------------|
-----------------------------------------------------------------------------|
-55-55-55-5------------------------------------------------------------------|
-55-55-55-5------------------------------------------------------------------|
-33-33-33-3------------------------------------------------------------------|
 Pre Chorus

-----------------------------------------------------------------------------|
-----------------------------------------------------------------------------|
-55555555----------99999999--------------------------------------------------|
-55555555-33333333-99999999-55555555-----------------------------------------|
-33333333-33333333-77777777-55555555-----------------------------------------|
----------11111111----------33333333-----------------------------------------|
 Chorus

-----------------------------------------------------------------------------|
-----------------------------------------------------------------------------|
-55555555--------------------------------------------------------------------|
-55555555-55555555-77777777-22222222-----------------------------------------|
-33333333-55555555-77777777-22222222-----------------------------------------|
----------33333333-55555555-00000000-----------------------------------------|
 Bridge Repeat

-----------------------------------------------------------------------------|
-----------------------------------------------------------------------------|
-5555------------------------------------------------------------------------|
-xxxx-5555-7777-2222---------------------------------------------------------|
-3333-xxxx-xxxx-xxxx---------------------------------------------------------|
------3333-5555-0000---------------------------------------------------------|
 Bridge Fill- Repeat As Necessary

-----------------------------------------------------------------------------|
-----------------------------------------------------------------------------|
-55555555----------99999999--------------------------------------------------|
-55555555-33333333-99999999-55555555-----------------------------------------|
-33333333-33333333-77777777-55555555-----------------------------------------|
----------11111111----------33333333-----------------------------------------|
 Chorus Repeat
Comments