Mest - Without You Chords & Tabs

 

Without You Chords & Tabs

Mest Chords & Tabs

Version: 2 Type: Tab 0 ratings
1 star 2 stars 3 stars 4 stars 5 stars
comments

Without You Tab

tabbed by: tessa reyes
email: nofxchick934@hotmail.com

tuning: standard EADGBe

intro: acoustic or clean

guitar 1
e|--------------|
B|--------------|
G|--------------|
D|--5--3--5--3--|
A|--5--3--5--3--|
E|--3--1--7--5--|

guitar 2
e|-----------|
B|------5----|
G|----5---5--|
D|--5--------|
A|-----------|
E|-----------|

part inbetween intro and verse: distorted
e|--------|
B|--------|
G|--------|
D|--3--5--|
A|--3--5--|  
E|--1--3--|

verse:
e|--------------|
B|--------------|
G|--5-----------|
D|--5--7--3--5--|
A|--3--7--3--5--|  
E|-----5--1--3--|
[ Tab from: http://www.guitartabs.cc/tabs/m/mest/without_you_tab_ver_2.html ]
chorus:
e|--------------|
B|--------------|
G|--5-----------|
D|--5--3--7--5--|
A|--3--3--7--5--|  
E|-----1--5--3--|
verse

chorus x2

bridge: palm muted
e|--------|
B|--------|
G|--------|
D|--3--5--|
A|--3--5--|  
E|--1--3--|

bridge solo:
e|---------------------|      |--------------|          
B|---------------------|      |--------------| 
G|---------------------|      |--------------| 
D|---------------------|      |-----------5--| 
A|--7--5--7--5--3------|  x3  |--2--3--5-----| 
E|------------------3--|      |--------------| 

last chorus riff:
e|--------3-----|
B|--------------|
G|-----5-----5--|
D|--5-----------| 
A|--------------|
E|--------------|

chorus

enjoy!
Comments