Mest - Whats The Dillio Chords & Tabs

 

Whats The Dillio Chords & Tabs

Mest Chords & Tabs

Version: 1 Type: Tab 0 ratings
1 star 2 stars 3 stars 4 stars 5 stars
comments

Whats The Dillio Tab

This is my 1st tab, and I hope the rest of you like it.
         Intro
e/-----------------------
B/-----------------------   Repeat 3x
G/------------------4----
D/------4-2-2-2-4/6------
A/--2-2------------------
E/-----------------------

         Verse
e/--4---4---2---2---2---2---2---2----
B/--5-x-5-x-4-x-4-x-2-x-2-x-2-x-2-x--  Repeat 3x
G/--4---4---4---4---3---3---3---3----
D/-----------------------------------
A/-----------------------------------
E/-----------------------------------

        Chorus
e/-----------------------------------
B/-----------------------------------
G/-----------------------------------
D/-----4-----------------------------   Repeat once more
A/--2--2--4--4-----------------------
E/--0-----2--2-----------------------
[ Tab from: http://www.guitartabs.cc/tabs/m/mest/whats_the_dillio_tab.html ]
e/-4---4---2---2------------4---4---2---2
B/-5-x-5-x-4-x-4------------5-x-5-x-2-x-2                                                                                                                                                                                                    
G/-4---4---4---4------------4---4---3---3
D/---------------------------------------
A/---------------------------------------
E/---------------------------------------

do verse again

              Lick
e/-----------------------------------
B/-----------------------------------
G/----3h4--3h4--3--------------------
D/--4-------------4------------------
A/-----------------------------------
E/-----------------------------------

e/------------------------------------------4-4-4-2-----------------4-4-4--2----------------
B/----5-5-4-------4-----5-5-5-5-4-----------5-5-5-4--4-4--2-4-2-----5-5-5--4--4-4-----------
G/---------4-4-6------------------4-4-6-3------------4-4--2-2-2---------------4-4--7--------
D/--4---------------4--------------------4-4---------------------4--------------------------
A/-----------------------------------------------------------------------------------------
E/-----------------------------------------------------------------------------------------

Well thats it, if you have any suggestions, I can get anything you want, within a week,
or less. So if you have any requests, or comments and suggestions for this peice e- mail
me at zorpheus99@aol.com.






Comments