Mest - Whats The Dillio Chords & Tabs

 

Whats The Dillio Chords & Tabs

Mest Chords & Tabs

Version: 1 Type: Bass Tab 0 ratings
1 star 2 stars 3 stars 4 stars 5 stars
comments

Whats The Dillio Bass Tab

------------------------------------------------------------------------------ 
                        WHAT'S THE DILLIO? - Mest 
------------------------------------------------------------------------------- 

By: Garrett McLaughlin 
punk.rules@verizon.net 

I found it easier to play it up the neck. The 8th notes are swung. 
Just listen to the cd to figure out the rythm. The last part repeats the 
ending with some variation. I didn't feel like writing them all. 
Listen for em. Email me with comment/corrections. Later 

\ = slide down 

Intro/Chorus 
G|--------------------------------------------------| 
D|-------6--9-------------------6--9----------------| 
A|--77-7-------------6--9--77-7-------------6-------| 
E|-------------7--7-------------------7--7-----7----| 

G|------------------------------------------6----| 
D|-------6--9-------------------6--9-------------| 
A|--77-7-------------6--9--77-7-------7--9-------| 
E|-------------7--7------------------------------| 

Verse 
G|------------------------------------| 
D|----------9-------------------------| 
A|--7-7-9-7---9-9---9------9-----9----| 
E|--------------------9-9----9-9------| 

G|--------------------------------|
D|-----9---9----------------------|
A|--7----7---9-9--9---------------|
E|-------------------9\--2-2-2----|
[ Tab from: http://www.guitartabs.cc/tabs/m/mest/whats_the_dillio_btab.html ]
G|-----------------------------------|
D|----------9------------------------|
A|--7-7-9-7---9-9--9------9-----9----|
E|-------------------9-9----9-9------|

G|------------------------------------|
D|----9-9---9-------------------------|
A|--7-----7---9-9--9-----9------------|
E|--------------------9----9-9\--2----|

Pre-Chorus 
G|----------------------------------------------------|
D|----------------------------------------------------|
A|--------------2---------------------------------2---|
E|--0-----------------2-------2-0-----------------2---|

Bridge 
G|-------------------------------------------------------------|
D|----------9-------------------------9-9---9------------------|
A|--7-7-9-7---9-9---9------9-----9--7-----7---9-9--9-----------|
E|--------------------9-9----9-9----------------------9\--2----|

Bridge Cont' 
G|------------------------------------------------------|
D|------------------------------------------------------|
A|----------2-2-2-2-------------------------2-2-2-2-----|
E|--0-0-0-0---------0-0-0-0-2-2-2-2-0-0-0-0-------------|

Ending 
G|--------------------------------------------------------------------| 
D|--------------------------------------------------------------------| 
A|----------2-2-2-2---------2-2-2-2---------2-2-2-2-------------------| 
E|--0-0-0-0---------0-0-0-0---------0-0-0-0---------0-0-0-0-2-2-2-2---| 

G|----------------| 
D|----------------| 
A|----------------| 
E|--0-0----0-0----| 

===============================================================================
Comments