Mest - Shell Of Myself Chords & Tabs

 

Shell Of Myself Chords & Tabs

Mest Chords & Tabs

Version: 1 Type: Tab 0 ratings
1 star 2 stars 3 stars 4 stars 5 stars
comments

Shell Of Myself Tab

Author/Artist: Mest
Title: Shell Of Myself
Album: Mest
Transcribed by: Kyle Wallace
Email: infected41@hotmail.com


Intro- Repeat As Necessary
-----------------------------------------------------------------------------|
-----------------------------------------------------------------------------|
-----------------------------------------------------------------------------|
-666666666666-4444444-3333-2222----------------------------------------------|
-666666666666-4444444-3333-2222----------------------------------------------|
-444444444444-2222222-1111-0000----------------------------------------------|

Verse 1- Palm Muted- Some Is Not (So Figure It Out Yourself, It's Easy)
-----------------------------------------------------------------------------|
-----------------------------------------------------------------------------|
-----------------------------------------------------------------------------|
-666666666666-4444444-3333-2222----------------------------------------------|
-666666666666-4444444-3333-2222----------------------------------------------|
-444444444444-2222222-1111-0000----------------------------------------------|

Chorus- Repeat As Necessary(Last Part Repeat Twice)
-----------------------------------------------------------------------------|
-----------------------------------------------------------------------------|
-4444444-----------4444444-----------4444444---------------------------------|
-4444444--4444444--4444444--2222222--4444444--4444444--6---4---3---2--2222---|
-2222222--4444444--2222222--2222222--2222222--4444444--6---4---3---2--2222---|
----------2222222-----------0000000-----------2222222--4xx-2xx-1xx-0xx0000---|

Intro Again- Repeat As Necessary
-----------------------------------------------------------------------------|
-----------------------------------------------------------------------------|
-----------------------------------------------------------------------------|
-666666666666-4444444-3333-2222----------------------------------------------|
-666666666666-4444444-3333-2222----------------------------------------------|
-444444444444-2222222-1111-0000----------------------------------------------|

 Verse 2- Same As Verse 1, But Slightly Altered , Certain Parts PM & Some Are Not
 Repeat As Necessary
------------------------------------------|
------------------------------------------|
-************-*******-****-****-----------|
-666666666666-4444444-3333-2222-(22-222)--|This Part Is At The Very End
-444444444444-4444444-3333-2222-(22-222)--|
-444444444444-2222222-1111-0000-(00-000)--|
[ Tab from: http://www.guitartabs.cc/tabs/m/mest/shell_of_myself_tab.html ]
 Chorus- Repeat As Necessary(Last Part Repeat Twice)
-----------------------------------------------------------------------------|
-----------------------------------------------------------------------------|
-4444444-----------4444444-----------4444444---------------------------------|
-4444444--4444444--4444444--2222222--4444444--4444444--6---4---3---2--2222---|
-2222222--4444444--2222222--2222222--2222222--4444444--6---4---3---2--2222---|
----------2222222-----------0000000-----------2222222--4xx-2xx-1xx-0xx0000---|

Bridge A- Repeat Twice
-----------------------------------------------------------------------------|
-----------------------------------------------------------------------------|
-----------------------------------------------------------------------------|
-66-44-33-2222---------------------------------------------------------------|
-xx-xx-xx-2222---------------------------------------------------------------|
-44-22-11-0000---------------------------------------------------------------|

Intro Again- Repeat As Necessary
-------------------------------------------------------------------------------|
-------------------------------------------------------------------------------|
-------------------------------------------------------------------------------|
-666666666666-4444444-3333-2222------------------------------------------------|
-666666666666-4444444-3333-2222------------------------------------------------|
-444444444444-2222222-1111-0000------------------------------------------------|

Chorus- Repeat As Necessary(Last Part Repeat Twice)
-----------------------------------------------------------------------------|
-----------------------------------------------------------------------------|
-4444444-----------4444444-----------4444444---------------------------------|
-4444444--4444444--4444444--2222222--4444444--4444444--6---4---3---2--2222---|
-2222222--4444444--2222222--2222222--2222222--4444444--6---4---3---2--2222---|
----------2222222-----------0000000-----------2222222--4xx-2xx-1xx-0xx0000---|

Bridge B- Repeat As Necessary
-----------------------------------------------------------------------------|
-----------------------------------------------------------------------------|
-----------------------------------------------------------------------------|
-66-44-33-2222---------------------------------------------------------------|
-xx-xx-xx-2222---------------------------------------------------------------|
-44-22-11-0000---------------------------------------------------------------|

Outro- Repeat As Necessary
-----------------------------------------------------------------------------|
-----------------------------------------------------------------------------|
-----------------------------------------------------------------------------|
-666666666666-4444444-3333-2222----------------------------------------------|
-666666666666-4444444-3333-2222----------------------------------------------|
-444444444444-2222222-1111-0000----------------------------------------------|
Comments