Mest - Rooftops Chords & Tabs

 

Rooftops Chords & Tabs

Mest Chords & Tabs

Version: 1 Type: Bass Tab 0 ratings
1 star 2 stars 3 stars 4 stars 5 stars
comments

Rooftops Bass Tab

Standard Tuning

G -----------------------------------------------------------------|
D -----------------------------------------------------------------|
A -----------------------------------------------------------------|
E 0000000-2222222-4444444-5555555-0000000-2222222-4444444-5~-5~-5~-|

Verse
G -------------------------------------------------|
D -------------------------------------------------|
A -------------------------------------9----9----9-|
E -00000000-00000000-99999999-7777--77---77----7---|

G ----------------------------------------------------|
D ----------------------------------------------------|
A ------------------------------------------9-7-6-----|
E -00000000-0000/12-12-12-12-9999-5555-7777-------9-7-|


Pre Chorus
G ---------------------------------------------------|
D ---------------------------------------------------|
A ---------------------6----6---6--------------------|
E -22222222-4-444--44---44---4----55555555-77777777/-|

Chorus 1
G ------------------------------------------------------|
D ------------------------------------------------------|
A --------------------------------------------4444-2222-|
E -00-00--55-55--44-44--55-55-57-00-00--55-55-----------|

Continued
G ------------------------------------|
D ------------------------------------|
A ----------7----7---7--4444-2222-----|
E -5555--55---55---5--------------555-|

Verse 2
G ---------------------------------------------------------|
D ---------------------------------------------------------|
A ----------------------------------------------9----9---9-|
E -00000000-0000/12-12-12-12-9999-5555-7777--77---77---7---|
[ Tab from: http://www.guitartabs.cc/tabs/m/mest/rooftops_btab.html ]
G ----------------------------------------------------|
D ----------------------------------------------------|
A ------------------------------------------9-7-6-----|
E -00000000-0000/12-12-12-12-9999-5555-7777-------9-7-|

Pre Chorus

Chorus 2
G ------------------------------------------------------|
D ------------------------------------------------------|
A --------------------------------------------4444-2222-|
E -00-00--55-55--44-44--55-55-57-00-00--55-55-----------|

Continued
G ------------------------------------------|
D ------------------------------------------|
A ----------7----7----7--4444-2222----------|
E -5555--55---55---5---------------55555555-|

Bridge
G --------------------------------------------------|
D --------------------------------------------------|
A -7-77-77777------------------------------------7~-|
E ------------7-77-77777--55-5-55-5--777-5-777-5----|

G -------------------------------------------------------|
D -------------------------------------------------------|
A -------------------------------------------------------|
E -0~--7~--5~--55555555-00000000-22222222-44444444-5-5-5-|

End Chorus
G ----------------------------------------------------------------|
D ----------------------------------------------------------------|
A ----------------------------------------------------------------|
E 00-00-55-55-44-44-0h5-0h5-0h5-5-57--00000000-55555555-9999-7777-|

G ------------------------------------------------------------|
D ------------------------------------------------------------|
A ----------7----7----7---------------------------------------|
E -5555--55---55----5---9999--11-11-11-11--12-12-12-12-555-0~-|
Comments