Mest - Opinions Chords & Tabs

 

Opinions Chords & Tabs

Mest Chords & Tabs

Version: 3 Type: Tab 0 ratings
1 star 2 stars 3 stars 4 stars 5 stars
comments

Opinions Tab

yeah....i thought the other song tabs weren't too great so i decided to add
my version that sounds pretty good...

in the intro theres a 2nd guitar that plays this the whole intro:
e--------------------------------------
B--------------------------------------
G-----9-----9-----9-----9-----9-----9--
D--7-----7-----7-----7-----7-----7-----
A--------------------------------------
E--------------------------------------

Intro

e-----------------------------------------
B-----------------------------------------
G-----------------------------------------
D-----------------------------------------
A-----9-----9-----6-----6-----4-----4--0--
E--7-----7-----4-----4-----2-----2-----2--


[ Tab from: http://www.guitartabs.cc/tabs/m/mest/opinions_tab_ver_3.html ]
Verse: play x2
e---------------|-----------------|------------------------
B---------------|-----------------|------------------------
G---------------|-----------------|------------------------
D-----11----11--|-----8-----8-----|------------------------
A--9---9--9--9--|--6--6--6--6-----|--4----------4--6--0----
E--7------7-----|- 4-----4--------|--2----------2--4--2----
frustrated with   whats going on     i feel lost    and i don't feel right


Chorus: play x2
e--------------
B--------------
G--------------
D--4-----------
A--2--0--6--4--
E-----2--4--2--


After the verse: play x2
e--------------
B--------------
G--------------
D--4-----------
A--2--0--6--4--
E-----2--4--2--


verse x1
chorus x2

after chorus x2

Then: play this a few...
e--------------------------|-----
B--------------------------|-----
G--------------------------|----
D-----4-----------4444444--|-----
A--2--2--2222222--2222222- |--4--
E--0-----0000000-----------|--2--
                              to chorus...

chorus x2

after chorus:

ends on:
e-----
B-----
G-----
D--6--
A--4--
E-----
Comments