Mest - Opinions Chords & Tabs

 

Opinions Chords & Tabs

Mest Chords & Tabs

Version: 1 Type: Tab 0 ratings
1 star 2 stars 3 stars 4 stars 5 stars
comments

Opinions Tab

   
Mest
"Opinions"
Destination Unknown

intro:
e---2---2---2---2---2---2-------------
B-0---0---0---0---0---0---------------
G-------------------------------------
D--------------------------4/22222222-
A--------------------------4/22222222-
E--------------------------2/00000000-
                               p.m.
[ Tab from: http://www.guitartabs.cc/tabs/m/mest/opinions_tab.html ]
verse:
      B5           G#5          F#5          Em
e------------------------------------------------------
B------------------------------------------------------
G-444444444444-----------------------------------------
D-444444444444-666666666666-444444444444-2222222222222-
A-222222222222-666666666666-444444444444-2222222222222-
E--------------444444444444-222222222222-0000000000000-
                                p.m.
(on the second time, make Em p.m.) 

chorus:
e-------------------------------------
B-------------------------------------
G-44444444----------------------------
D-44444444-22222222-66666666-44444444-
A-22222222-22222222-66666666-44444444-
E----------00000000-44444444-22222222-

after chorus:
e-------------
B-------------
G-44----------
D-44-22-66-44-
A-22-22-66-44-
E----00-44-22-

interlude:
e-----------
B-----------
G------4444-
D-2222-4444-
A-2222-2222-
E-0000------

end of interlude:
e--------------
B--------------
G--------------
D-444444444444-
A-444444444444-
E-222222222222-
      p.m.
Comments