Mest - Nightmare Chords & Tabs

 

Nightmare Chords & Tabs

Mest Chords & Tabs

Version: 1 Type: Bass Tab

Nightmare Bass Tab

Mest  Nightmare


/ = slide
. = Palm Mute
()= Play only first time

*in the chorus and outro, the notes are tens, not ones*

Intro
After drum plays two counts
G|---------------------------------|
D|---------------------------------|
A|---------------------------------|x2
E|-(00)-000000--333333-------------|

Verse 1
G|---------------------------------|
D|---------------------------------|
A|---------------------------------|x4
E|-0000000033333333----------------|

Pre-Chorus
G|---------------------------------|
D|---------------------------------|
A|----3-2--------------------------|x1
E|--3------------------------------|

Chorus 1
G|---------------------------------|
D|---------------------------------|
A|--00-00--------------------------|x1
E|---------33-33-10/--00-00-33-33--|

G|---------------------------------|
D|---------------------------------|
A|-00000---------------------------|x1
E|-------3333310/0000-3333--------|
[ Tab from: http://www.guitartabs.cc/tabs/m/mest/nightmare_btab.html ]
Post-Chorus 1
G|---------------------------------|
D|---------------------------------|
A|--------333333-------------------|x1
E|-000000--------------------------|

Verse 2  Same as Verse 1

Bridge
G|---------------------------------|   _
D|---------------------------------|    |
A|-33333333------------------------|x4  | 
E|----------55555555---------------|    |
   ........ ........                    |
                                        |x2
G|---------------------------------|    | 
D|---------------------------------|    | 
A|-3333----------------------------|x1  | 
E|---------------------------------|   _|

G|---------------------------------|
D|---------------------------------|
A|-33333333------------------------|x1
E|----------33333333---------------|

Pause until "my twisted..."
G|---------------------------------|
D|---------------------------------|
A|-3333-33333333-00000000----------|x1
E|---------------------------------|

Outro/Solo
G|---------------------------------|
D|---------------22----------------|
A|-------33---------33-------------|x2
E|-000000----00---------10/--------|

End On
G|---------------------------------|
D|---------------------------------|
A|---------------------------------|
E|-0-------------------------------|