Mest - Night Alone Chords & Tabs

 

Night Alone Chords & Tabs

Mest Chords & Tabs

Version: 2 Type: Tab 0 ratings
1 star 2 stars 3 stars 4 stars 5 stars
comments

Night Alone Tab

Author/Artist: Mest
Title: Night Alone
Album: Mest
Transcribed by: Kyle
Email: infected41@hotmail.com

Intro A- Repeat As Necessary
---------------------------------------------------------------|
---0------0------0-----0---------------------------------------|
-1---1--1---1--3---3-------------------------------------------|
---------------------4---4-------------------------------------|
---------------------------------------------------------------|
---------------------------------------------------------------|

Intro B- Palm Muted- Repeat As Necessary
--------------------------------------------------------------|
--------------------------------------------------------------|
-2-22---4-44--3-33--2-22-2-22---------------------------------|
-2-22---4-44--3-33--2-22-2-22---------------------------------|
-0-00---2-22--1-11--0-00-0-00---------------------------------|
--------------------------------------------------------------|

Verse 1- Repeat As Necessary
-------------------------------------------------------------|
-------------------------------------------------------------|
-2222222222--44444--33333------------------------------------|
-2222222222--44444--33333------------------------------------|
-0000000000--22222--11111------------------------------------|
-------------------------------------------------------------|
 ...Then Intro A
-------------------------------------------------------------|
---0------0------0-----0-------------------------------------|
-1---1--1---1--3---3-----------------------------------------|
---------------------4---4-----------------------------------|
-------------------------------------------------------------|
-------------------------------------------------------------|

Verse 2
---------------------------------------------------------------|
---------------------------------------------------------------|
-2------------------33333--------------------------------------|
-2-hold-------------33333--------------------------------------|
-0------------------11111--------------------------------------|
---------------------------------------------------------------|

Chorus
--------------------------------------------------------------|
--------------------------------------------------------------|
-----------88888888--99999999--9/7/5/4/5----------------------|
-99999999--88888888--99999999--x/x/x/x/x----------------------|
-99999999--66666666--77777777--7/5/3/2/3----------------------|
-77777777-----------------------------------------------------|
[ Tab from: http://www.guitartabs.cc/tabs/m/mest/night_alone_tab_ver_2.html ]
Then Intro A
--------------------------------------------------------------|
---0------0------0-----0--------------------------------------|
-1---1--1---1--3---3------------------------------------------|
---------------------4---4------------------------------------|
--------------------------------------------------------------|
--------------------------------------------------------------|

Verse 3 (Intro B, But Faster & Altered Strumming Pattern That Is Not Shown)
Repeat As Necessary
--------------------------------------------------------------|
--------------------------------------------------------------|
-2-22---4-44--3-33--2-22-2-22---------------------------------|
-2-22---4-44--3-33--2-22-2-22---------------------------------|
-0-00---2-22--1-11--0-00-0-00---------------------------------|
--------------------------------------------------------------|

Chorus- Repeat As Necessary
---------------------------------------------------------------|
---------------------------------------------------------------|
-----------88888888--99999999--9/7/5/4/5-----------------------|
-99999999--88888888--99999999--x/x/x/x/x-----------------------|
-99999999--66666666--77777777--7/5/3/2/3-----------------------|
-77777777------------------------------------------------------|

Bridge- Repeat As Necessary
----------------------------------------------------------------|
----------------------------------------------------------------|
----------------------------------------------------------------|
-6666-8888-9999-6666--------------------------------------------|
-6666-8888-9999-6666--------------------------------------------|
-4444-6666-7777-4444--------------------------------------------|

Chorus- Palm Muted- Repeat As Necessary
----------------------------------------------------------------|
----------------------------------------------------------------|
-----------88888888--99999999--9/7/5/4/5------------------------|
-99999999--88888888--99999999--x/x/x/x/x------------------------|
-99999999--66666666--77777777--7/5/3/2/3------------------------|
-77777777-------------------------------------------------------|

Chorus- Not Palm Muted- Repeat As Necessary
-----------------------------------------------------------------|
-----------------------------------------------------------------|
-----------88888888--99999999--9/7/5/4/5-------------------------|
-99999999--88888888--99999999--x/x/x/x/x-------------------------|
-99999999--66666666--77777777--7/5/3/2/3-------------------------|
-77777777--------------------------------------------------------|

Ending- Palm Muted- Repeat As Necessary
---------------------------------------------------------------|
---------------------------------------------------------------|
---------------------------------------------------------------|
-222-444-333--222----------------------------------------------|
-222-444-333--222----------------------------------------------|
-000-222-111--000----------------------------------------------|
Comments