Mest - Mothers Prayer Chords & Tabs

 

Mothers Prayer Chords & Tabs

Mest Chords & Tabs

Version: 1 Type: Bass Tab 0 ratings
1 star 2 stars 3 stars 4 stars 5 stars
comments

Mothers Prayer Bass Tab

This absolutely, positively correct!

Intro (Guitar and Drums)

Verse 1 (About 0:07 or 0:08)
G--------------------------------------------------------------------------
D--------------------------------------------------------------------------
A---------55--------------55---------------55--------------55--------------
E-7/--55------22--00--55------22--0055-55------22--00--55------22--0000----

Chorus 1 (0:25)
G------------------------------------------------------------------
D------------------------------------------------------------------
A-------------5-----------------------------5----------------------
E-55----55-------55----55----0--55----55-------55--00--55----0000--

Verse 2 (0:41) play 2x
G-----------------------------------------
D-----------------------------------------
A----------55555555-----------------------
E-55555555----------22222222-00000000-----

Chorus 2 (0:58)
G-----------------------------------------------------------------------
D-----------------------------------------------------------------------
A------------------------------------5555------7777------5555------7654-
E-55----55----0--55----55--0000-5555------5555------5555------5555------
[ Tab from: http://www.guitartabs.cc/tabs/m/mest/mothers_prayer_btab.html ]
G------------------------
D------------------------
A------5555------7777----
E-5555------5555---------

Bridge (1:19) play 2x

G--------------------------------------------------------------------------
D--------------------------------------------------------------------------
A-7777777777777777-4444444444444444----------76543333----------76543333----
E-----------------------------------55555555----------55555555-------------

Rest (1:52)

Ending Chorus (2:02)
G-------------------------------------------------------------
D-------------------------------------------------------------
A------5555------7777------5555------7654------5555------7777-
E-5555------5555------5555------5555------5555------5555------

G--------------------------------------------
D--------------------------------------------
A------5555------7654------5555------7777----
E-5555------5555------5555------5555---------

Outro (2:23)
G------------------------------------------------
D------------------------------------------------
A--------------------55----------55--------------
E-55----55----0--55------55--55------55--55------

The End

He tends to walk a lot on his neck (go up and down notes), as you can tell with
the bridge and parts of the 2nd and ending chorus, so you may not catch all the notes.
Comments