Mest - Misunderstood Chords & Tabs

 

Misunderstood Chords & Tabs

Mest Chords & Tabs

Version: 1 Type: Tab 0 ratings
1 star 2 stars 3 stars 4 stars 5 stars
comments

Misunderstood Tab

Misunderstood - Mest

By:RYAN BRODHEAD
BGoobie11@aol.com

Intro (octaves):
e|---------------------------------------------------------------------------|
B|---------------------------------------------------------------------------|
G|--//9--7--9---//9--7--5---//9--7--9--7--10--9--7--5------------------------|
D|----x--x--x-----x--x--x-----x--x--x--x---x--x--x--x------------------------|
A|--//7--5--7---//7--5--3---//7--5--7--5---8--7--5--3------------------------|
E|---------------------------------------------------------------------------|

Intro (chords):
e|---------------------------------------------------------------------------|
B|---------------------------------------------------------------------------|
G|-5-5-5-5-------------------------------------------------------------------|
D|-5-5-5-5-7-7-7-7-3-3-3-3-5-5-5-5-----5-5-----------------------------------|
A|-3-3-3-3-7-7-7-7-3-3-3-3-5-5-5-5-----5-5-----------------------------------|
E|---------5-5-5-5-1-1-1-1-3-3-3-3-----3-3-----------------------------------|

Verse 1:
e|---------------------------------------------------------------------------|
B|---------------------------------------------------------------------------|
G|----------------------5-5-5-5-5-5-5-5-5-5----------------------------------|
D|-7-7--3----------5-5--5-5-5-5-5-5-5-5-5-5-7-7-7-7-7-5-5-5-5-5-3-3-3-3-3-5-5|
A|-7-7--3-let ring-5-5--3-3-3-3-3-2-2-2-2-2-7-7-7-7-7-5-5-5-5-5-3-3-3-3-3-5-5|
E|------1----------3-3----------------------5-5-5-5-5-3-3-3-3-3-1-1-1-1-1-3-3|
   pm.

Verse 1 (continued):
e|---------------------------------------------------------------------------|
B|---------------------------------------------------------------------------|
G|-5-5-5-5-5-5---------------------------------------------------------------|
D|-5-5-5-5-5-5-7-7-7-7-7-7-3-3-3-3-3-3---5-5---------------------------------|
A|-3-3-3-3-3-3-7-7-7-7-7-7-3-3-3-3-3-3---5-5---------------------------------|
E|-------------5-5-5-5-5-5-1-1-1-1-1-1---3-3---------------------------------|

Chorus
e|---------------------------------------------------------------------------|
B|---------------------------------------------------------------------------|
G|--5-5----------------------------------------------------------------------|
D|--5-5--7-7--3-3-3-3-3-3--5-5-5-5-5-5---------------------------------------|
A|--3-3--7-7--3-3-3-3-3-3--5-5-5-5-5-5---(2 x)-------------------------------|
E|-------5-5--1-1-1-1-1-1--3-3-3-3-3-3---------------------------------------|

Chorus (tiny palm muting after muting)
e|---------------------------------------------------------------------------|
B|---------------------------------------------------------------------------|
G|---------------------------------------------------------------------------|
D|-5-5-5-5-5-5--5------------------------------------------------------------|
A|-5-5-5-5-5-5--5------------------------------------------------------------|
E|-3-3-3-3-3-3--3------------------------------------------------------------|
   pm pm pm pm 

Verse 2
e|------------------------------------------------------|
B|------------------------------------------------------|
G|-5-5-5-5-5-5-5-5-5-5----------------------------------|
D|-5-5-5-5-5-5-5-5-5-5-7-7-7-7-7-5-5-5-5-5-3-3-3-3-3--5-|
A|-3-3-3-3-3-2-2-2-2-2-7-7-7-7-7-5-5-5-5-5-3-3-3-3-3--5-|
E|---------------------5-5-5-5-5-3-3-3-3-3-1-1-1-1-1--3-|
  pm pm pm pm pm pm pm pm pm pm pm pm pm pm pm pm pm    

Verse 2 (continued)
e|-------------------------------------------------------|
B|-------------------------------------------------------|
G|-5-5-5-5-5-5-5-5-5-5-----------------------------------|
D|-5-5-5-5-5-5-5-5-5-5-7-7-7-7-7-5-5-5-5-5-3-3-3-3-3--5-5|
A|-3-3-3-3-3-2-2-2-2-2-7-7-7-7-7-5-5-5-5-5-3-3-3-3-3--5-5|
E|---------------------5-5-5-5-5-3-3-3-3-3-1-1-1-1-1--3-3|
[ Tab from: http://www.guitartabs.cc/tabs/m/mest/misunderstood_tab.html ]
Verse 2 (continued):
e|---------------------------------------------------------------------------|
B|---------------------------------------------------------------------------|
G|-5-5-5-5-5-5---------------------------------------------------------------|
D|-5-5-5-5-5-5-7-7-7-7-7-7-3-3-3-3-3-3---5-5---------------------------------|
A|-3-3-3-3-3-3-7-7-7-7-7-7-3-3-3-3-3-3---5-5---------------------------------|
E|-------------5-5-5-5-5-5-1-1-1-1-1-1---3-3---------------------------------|

Chorus
e|---------------------------------------------------------------------------|
B|---------------------------------------------------------------------------|
G|--5-5----------------------------------------------------------------------|
D|--5-5--7-7--3-3-3-3-3-3--5-5-5-5-5-5---------------------------------------|
A|--3-3--7-7--3-3-3-3-3-3--5-5-5-5-5-5---(2 x)-------------------------------|
E|-------5-5--1-1-1-1-1-1--3-3-3-3-3-3---------------------------------------|

Bridge
e|---------------------------------------------------------------------------|
B|---------------------------------------------------------------------------|
G|-9-9-x-9-9-9--9-9-x-9-9-9--7-7-x-7-7-7--7-7-x-7-7-7------------------------|
D|-x-x-x-x-x-x--x-x-x-x-x-x--x-x-x-x-x-x--x-x-x-x-x-x------------------------|
A|-7-7-x-7-7-7--7-7-x-7-7-7--5-5-x-5-5-5--5-5-x-5-5-5------------------------|
E|---------------------------------------------------------------------------|

e|---------------------------------------------------------------------------|
B|---------------------------------------------------------------------------|
G|-5-5-x-5-5-5--5-5-x-5-5-5--7-7-x-7-7-7--7-7-x-7-7-7------------------------|
D|-x-x-x-x-x-x--x-x-x-x-x-x--x-x-x-x-x-x--x-x-x-x-x-x------------------------|
A|-3-3-x-3-3-3--3-3-x-3-3-3--5-5-x-5-5-5--5-5-x-5-5-5------------------------|
E|---------------------------------------------------------------------------|

Bridge (continued)(do this 2x, 2nd time don't palm mute)
e|----------------------------------------------------------------------------|
B|----------------------------------------------------------------------------|
G|-5-5-5-5-5-5----------------------------------------------------------------|
D|-5-5-5-5-5-5-7-7-7-7-7-7-3-3-3-3-3-3---5-5---5---5-5---5---5-5---5---5-5---5|
A|-3-3-3-3-3-3-7-7-7-7-7-7-3-3-3-3-3-3---5-5---5---5-5---5---5-5---5---5-5---5|
E|-------------5-5-5-5-5-5-1-1-1-1-1-1---3-3---3---3-3---3---3-3---3---3-3---3|
   pm pm pm pm pm pm pm pm pm pm pm pm  pm pm     pm pm     pm pm     pm pm

Chorus (1st time)
e|----------------------------------------------------------------------------|
B|----------------------------------------------------------------------------|
G|--5-5-----------------------------------------------------------------------|
D|--5-5--7-7-------------3-3-3-3-3-3--5-5-5-5-5-5-----------------------------|
A|--3-3--7-7-------------3-3-3-3-3-3--5-5-5-5-5-5-----------------------------|
E|-------5-5--pick slide-1-1-1-1-1-1--3-3-3-3-3-3-----------------------------|

Chorus (2nd time)
e|----------------------------------------------------------------------------|
B|----------------------------------------------------------------------------|
G|--5-5--5-5-5-5-5-5-5-5------------------------------------------------------|
D|--5-5-------------------7-7-7-7-7-7--3-3-3-3-3-3--5-5-5-5-5-5---------------|
A|--3-3-------------------7-7-7-7-7-7--3-3-3-3-3-3--5-5-5-5-5-5---------------|
E|------------------------5-5-5-5-5-5--1-1-1-1-1-1--3-3-3-3-3-3---------------|

Bridge (again)(theres some single notes on top of this but i have lost interest)
e|---------------------------------------------------------------------------|
B|---------------------------------------------------------------------------|
G|-9-9-x-9-9-9--9-9-x-9-9-9--7-7-x-7-7-7--7-7-x-7-7-7------------------------|
D|-x-x-x-x-x-x--x-x-x-x-x-x--x-x-x-x-x-x--x-x-x-x-x-x------------------------|
A|-7-7-x-7-7-7--7-7-x-7-7-7--5-5-x-5-5-5--5-5-x-5-5-5------------------------|
E|---------------------------------------------------------------------------|

e|---------------------------------------------------------------------------|
B|---------------------------------------------------------------------------|
G|-5-5-x-5-5-5--5-5-x-5-5-5--7-7-x-7-7-7--7-7-x-7-7-7------------------------|
D|-x-x-x-x-x-x--x-x-x-x-x-x--x-x-x-x-x-x--x-x-x-x-x-x------------------------|
A|-3-3-x-3-3-3--3-3-x-3-3-3--5-5-x-5-5-5--5-5-x-5-5-5------------------------|
E|---------------------------------------------------------------------------|
Comments