Mest - Misunderstood Chords & Tabs

 

Misunderstood Chords & Tabs

Mest Chords & Tabs

Version: 1 Type: Bass Tab 0 ratings
1 star 2 stars 3 stars 4 stars 5 stars
comments

Misunderstood Bass Tab

--------------------------------------------------------------------------------
                               Misunderstood - Mest
-------------------------------------------------------------------------------- 

This is my first ever tab so donít get on my back if its completely wrong. 
E-mail comments and corrections- rufio_pivit@hotmail.com 

Intro *1 
G -----------------------|---------------------------------| 
D -----------------------|---------------------------------| 
A -----3>--0>------------|---3-3-----0-0-------------------| 
E --------------1>--3>---|-------------------1-(hold)-3-3--| 
(I know youíre not exactly crazy) 
Verse 
G -----------------------------------| 
D -----------------------------------| 
A -----3>--2>--0>--------------------| 
E -------------------3>--1>--3-3-----| 

Chorus 
G ------------------------------------------------------------------| 
D ------------------------------------------------------------------| 
A -----3-3-(Completely)-0-0-(Overwhelming)--------------------------| 
E ---------------------------------------------1>---3>--------------| 
[ Tab from: http://www.guitartabs.cc/tabs/m/mest/misunderstood_btab.html ]
Play lots of- 
A---3s---| at end of first chorus. 

Bridge- 
Iím not sure if the bass plays the lead or the rhythm but it sounds good of you play the lead. 
G -----------------------------------------------------------------------------| 
D -----------------------------------------------------------------------------| 
A Ė0-0-0-0-0-0-2-2-3-3-5-5-2-2------------------2-2-3-3-5-5-2-2----------------| 
E --------------------------------3-3-3-3-3-3---------------------1-1-1-1-1-1--| 

G -----------------------------------------------------------------------------| 
D -----------------------------------------------------------------------------| 
A 2-2-3-3-5-5-2-2-----------------2-2-3-3-5-5-2-2------------------------------| 
E -------------------3-3-3-3-3-3-----------------------------------------------| 


Rhythm part after and during the bridge. 
G --------------------------------| 
D --------------------------------| 
A --------------------------------| 
E ----5>--3>--1>--33-3-33-3-------| 

End on. 
Aó0-0----| 
Thatís just about it. A good song. :) 
Tabbed by Paul Jepson. 
===============================================================================
Comments