Mest - Missing My Baby Tonight Chords & Tabs

 

Missing My Baby Tonight Chords & Tabs

Mest Chords & Tabs

Version: 1 Type: Bass Tab 0 ratings
1 star 2 stars 3 stars 4 stars 5 stars
comments

Missing My Baby Tonight Bass Tab

------------------------------------------------------------------------------- 
                       MISSING MY BABY TONIGHT - Mest 
------------------------------------------------------------------------------- 

By: Phillip (pmp1085@hotmail.com) 

This is the secret song off of Destination Unknown 

Come in at 2:55 
G|---------------------------------------------------------------------------| 
D|---------------------------------------------------------------------------| 
A|---------------------------------------------------------------------------| 
E|--5~-4---------------------------------------------------------------------| 

Verse 1 (x2) 
G|-----------------------------------------------------5~ 4~-----------------| 
D|--------------5--7-4----7-4----5-2----5-2-------4-7------------------------| 
A|---55555---55---------5------5------3------3--5----------------------------| 
E|-3-------------------------------------------------------------------------| 

Chorus (x2) 
G|---------------------------------------------------------------------------| 
D|-------------------99999----999----77777----77777-----99999-----77777------| 
A|---77777----777--7--------7------5-------55-------5/7-------7\5------------| 
E|-5--------5----------------------------------------------------------------| 
[ Tab from: http://www.guitartabs.cc/tabs/m/mest/missing_my_baby_tonight_btab.html ]
Bridge ("Onnn, and onn....) 
G|--------------------------------7~-----------------------------------------| 
D|---------------------------------------------------------------------------| 
A|-----7-------7------2-------2-------7--5-----------------------------------| 
E|-5-5---555-5----0-0---000-0------------------------------------------------| 

Trombone Solo (x2) 
G|-------------------------------6-------------------------------------------| 
D|----------------------6--4~--7------6-9------------------------------------| 
A|--------4-7--4~--44-7-------------7-----7----------------------------------| 
E|-5~--55--------------------------------------------------------------------| 

"I just keep holding on..." (x2) 
G|---------------------------------------------------------------------------| 
D|--------------------6-------6------------------6-9----9-7------------------| 
A|---4-7----4-7--4--7----4--7--------4------4--7------7----------------------| 
E|-5------5----------------------2-5----2-5----------------------------------| 

Chorus 
G|-----------------------------------44444----44444-----66666-----44444------| 
D|---44444----444------------------2-------22-------2/4-------4\2------------| 
A|-2--------2--------44444----444--------------------------------------------| 
E|-----------------2--------2------------------------------------------------| 

End on G|--16--| 

I'm the first one to tab this beast. A very cool song...email me with
questions/requests/comments. 
===============================================================================
Comments