Mest - Melt With You Chords & Tabs

 

Melt With You Chords & Tabs

Mest Chords & Tabs

Version: 1 Type: Tab 1 rating
1 star 2 stars 3 stars 4 stars 5 stars
comments

Melt With You Tab

   
 Mest: “Melt With You”
 Intro: (x2)
E--------------------------------------------------------|
B--------------------------------------------------------|
G---------------------1------2-1-------------------------|
D--6------7-6---(or)-----2--------2----------------------|
A0---7--4-----7------0------4----------------------------|
E--------------------------------------------------------|
  Verse 1:(x4)
E--------------------------------------------------------|
B--------------------------------------------------------|
G1--------1----2--------2--------------------------------|
D--2----2---2----2----2---2------------------------------|
A----0-------------4-------------------------------------|
E--------------------------------------------------------|
  
Verse 1
Moving forward using all my breath
Making love to you was never second best
I saw the world crashing all around your face
Never really knowing it was always missing lace

(Pick scrape btw. D & A strings, “missing…”)

Chorus: (Play verse 1 over this)
  E      A
E--------------------------------------------------------|
B--------------------------------------------------------|
G--------2-----------------------------------------------|
D-2------2-----------------------------------------------|
A-2------0-----------------------------------------------|
E-0------------------------------------------------------|

Chorus
E                                 A
I’ll stop the world and melt with you
E                                A
You see the difference and it’s getting better all the time
E                               A
There’s nothing you and I won’t do
E                                 A
I’ll stop the world and melt with you

(We should know better)


[ Tab from: http://www.guitartabs.cc/tabs/m/mest/melt_with_you_tab.html ]
 Verse 2: (x2)
E--------------------------------------------------------|
B--------------------------------------------------------|
G--------------------------------------------------------|
Dx-x-9-x-x-9-x-x-9-x-x-9-x-x-11-x-x-11-x-x-11-x-x-11-----|
A--------------------------------------------------------|
E--------------------------------------------------------|
 (x2)
E--------------------------------------------------------|
B--------------------------------------------------------|
G--------------------------------------------------------|
D----9-----9---9-----9-----9---9-------------------------|
Ax-x---x-x---x---x-x---x-x---x-------7-----7---7---------|
E--------------------------------x-x---x-x---x-----------|

E--------------------------------------------------------|
B--------------------------------------------------------|
G--------------------------------------------------------|
D--------------------------------------------------------|
A----7-----7---7-----------------------------------------|
Ex-x---x-x---x-------------------------------------------|

Verse 2: (P.M. E & A)
E                        A
Dream of better eyes the kind which never hate
E                       A
Trapped in a state of imaginary grace
A                          E
I’ve made a pilgrimage to save this human’s race
A                                 E
Never comprehending a race that’s long gone by


Repeat Chorus
	
 Bridge: (x2)
E--------------------------------------------------------|
B--------------------------------------------------------|
G--------------------------------------------------------|
D--------------------------------------------------------|
A-4(let ring)7(let ring)9(let ring)12\-------------------|
E--------------------------------------------------------|

Our future’s open wide

Repeat Intro

Repeat Chorus (W/Intro)

Repeat Bridge (Vocals only)

Humming voclals

(Pick Scrape)

Repeat Chorus (W/Intro
 
Repeat Intro
Comments