Mest - Lost Broken Confused Chords & Tabs

 

Lost Broken Confused Chords & Tabs

Mest Chords & Tabs

Version: 1 Type: Tab 0 ratings
1 star 2 stars 3 stars 4 stars 5 stars
comments

Lost Broken Confused Tab

My guitar teacher helped me with this, so it's just about accurate.

Tuning: Standard


Intro:

e|-----------|-----------|-----------|-----------|
B|-----------|-----------|-----------|-----------|
G|-----------|-----------|-----------|-----------|  x2
D|-----------|-----------|-----------|-99999999--|
A|--999--99--|--999--99--|--666--66--|-77776666--|
E|--777--770-|--666--660-|--444--440-|-----------|

Verse:
e|-----------|-----------|-----------|------------|
B|-----------|-----------|-----------|------------|
G|-----------|-----------|-----------|------------|  x2
D|-----------|-----------|-----------|------------|
A|--999--999-|--666--666-|--222--222-|--444--444--|
E|--777--777-|--444--444-|--000--000-|--222--222--|

e|---------------|-----------------|    |----------|---------------------------|
B|--4-4-4--------|-----------------|    |----------|---------------------------|
G|-----4-4-4-3-3-|-3-4-4-4-6-6-6-6-|(x2)|-44444444-|-6666xxxx------------------|
D|---------------|-----------------|    |-22222222-|-4444xxxx------------------|
A|---------------|-----------------|    |----------|-----xxxx------------------|
E|---------------|-----------------|    |----------|---------------------------|
	(This is done with 2 guitars, one playing this higher part and the other
playing power chords... power chords not shown)

Chorus:
e|-----------|----------|----------|-----------|
B|-----------|----------|----------|-----------|
G|-----------|----------|----------|-----------|  x2
D|-----------|----------|-99999999-|-99999999--|
A|--99999999-|-99999999-|-77777777-|-77777777--|
E|--77777777-|-66666666-|----------|-----------|

e|-----------|-----------|----------|----------|
B|-----------|-----------|----------|----------|
G|-----------|-----------|----------|----------|
D|-----------|-----------|-99999999-|-99999999-|
A|--666--666-|--999--999-|-77777777-|-77777777-|
E|--444--444-|--666--666-|----------|----------|
[ Tab from: http://www.guitartabs.cc/tabs/m/mest/lost_broken_confused_tab.html ]
e|-----------|----------|----------------------|--------------|
B|-----------|----------|----------------------|--------------|
G|-----------|----------|----------------------|--------------|
D|-----------|----------|-9---(Whole-----------|---(Still-----|
A|--99999999-|-99999999-|-7----Note)-----------|----holding)--|
E|--77777777-|-66666666-|----------------------|--------------|

Bridge:
e|-----------|-----------|-----------|------------|
B|-----------|-----------|-----------|------------|
G|-----------|-----------|-----------|------------|  x2
D|-----------|-----------|-----------|------------|
A|--66666666-|--77777777-|--44444444-|--22222222--|
E|--44444444-|--99999999-|--22222222-|--00000000--|
	(They're actually playing this part a lot faster, but I don't know that way)


e|-----------|-----------|-----------|------------|
B|-----------|-----------|-----------|------------|
G|-----------|-----------|-----------|------------|
D|-----------|-----------|-----------|------------|
A|--99999999-|--99999999-|--44444444-|--44444444--|
E|--77777777-|--77777777-|--22222222-|--22222222--|

e|-----------|-----------|-----------|------------|
B|-----------|-----------|-----------|------------|
G|-----------|-----------|-----------|------------|  x2
D|-----------|-----------|-----------|------------|
A|--66666666-|--44444444-|--22222222-|--22222222--|
E|--44444444-|--22222222-|--00000000-|--00000000--|

e|-----------|-----------|-----------|------------|
B|-----------|-----------|-----------|------------|
G|-----------|-----------|-----------|------------|
D|-------9---|--------9--|--------4--|--4---------|
A|-----9-----|-----9-----|-----2-----|--2---------|
E|--7--------|--6--------|--0--------|--0---------|

e|-----------|-----------|----------|----------|
B|-----------|-----------|----------|----------|
G|-----------|-----------|----------|----------|
D|-----------|-----------|-99999999-|-99999999-|
A|--666--666-|--999--999-|-77777777-|-77777777-|
E|--444--444-|--666--666-|----------|----------|

e|-----------|----------|
B|-----------|----------|
G|-----------|----------|
D|-----------|----------|
A|--99999999-|-99999999-|
E|--77777777-|-66666666-|
	Then keep playing this part till the end
Comments