Mest - Long Days Long Nights Chords & Tabs

 

Long Days Long Nights Chords & Tabs

Mest Chords & Tabs

Version: 1 Type: Tab 0 ratings
1 star 2 stars 3 stars 4 stars 5 stars
comments

Long Days Long Nights Tab

Mest 
"Long Days, Long Nights"
Wasting Time

Intro: Guitar 1
e--------------------------------------
B--------------------------------------
G-4~-----------------------------------
D-4~-4~-2~-6~-4~----22222222-44444444--  
A-2~-4~-2~-6~-4~-2x-22222222-44444444--
E----2~-0~-4~-2~----00000000-22222222--

Guitar 2
e-----------------------------------------------
B-----------------------------------------------
G----11~-9~----------99999999-1111111111111111--
D-9~-11~-9~-6~-4~----xxxxxxxx--x-x-x-x-x-x-x-x--
A-9~--9~-7~-6~-4~-2x-77777777--9-9-9-9-9-9-9-9--
E-7~--------4~-2~-------------------------------

Verse: Guitar 1
e------------------------------------------------------------
B------------------------------------------------------------
G-44444444---------------------------------------------------
D-44444444-44444444-22222222-66-44----22222222-44444444--
A-22222222-44444444-22222222-66-44-2x-22222222-44444444--
E----------22222222-00000000-44-22----00000000-22222222--

Guitar 2
e---------------------------------------------
B---------------------------------------------
G----------1111111111111111-99999999----------
D-99999999-1111111111111111-99999999-66-44----
A-99999999--9-9-9-9-9-9-9-9-77777777-66-44-2x-
E-77777777---------------------------44-22----

-----------------------------
-----------------------------
--99999999-1111111111111111--
--xxxxxxxx--xxxxxxxxxxxxxxx--
--77777777--9-9-9-9-9-9-9-9--
-----------------------------
[ Tab from: http://www.guitartabs.cc/tabs/m/mest/long_days_long_nights_tab.html ]
Chorus 1: Guitar 1
e-------------------------------------------
B-------------------------------------------
G-------------------------------------------
D-66666666-44444444-22222222-44444444-4444--
A-66666666-44444444-22222222-44444444-4444--
E-44444444-22222222-00000000-22222222-2222--
                                      p.m.

Guitar 2
e----------------------------------------------
B----------------------------------------------
G-------------------99999999-1111111111111111--
D-66666666-44444444-99999999-1111111111111111--
A-66666666-44444444-77777777--9-9-9-9-9-9-9-9--
E-44444444-22222222----------------------------

Chorus 2: "the pain dwells on and on..."
Guitar 1
e-------------------------------------
B-------------------------------------
G-44444444----------------------------
D-44444444-44444444-2222222222222222--
A-22222222-44444444-2222222222222222--
E----------22222222-0000000000000000--

Guitar 2
e-------------------------------------
B-------------------------------------
G-44444444----------9999999999999999--
D-44444444-44444444-9999999999999999--
A-22222222-44444444-7777777777777777--
E----------22222222-------------------

Interlude: both guitars
e------------------------
B------------------------
G------------------------
D-----4-----4-----2-2-1--  4x
A-2-2---2-2---4-4--------
E------------------------

e-------------------------------------
B-------------------------------------
G-------------------4444444444444444--
D-66666666-44444444-4444444444444444--
A-66666666-44444444-2222222222222222--
E-44444444-22222222-------------------

End: both guitars
e-------
B-------
G--4-4--
D--4-4--
A--2-2--
E-------
Comments