Mest - Long Days Long Nights Chords & Tabs

 

Long Days Long Nights Chords & Tabs

Mest Chords & Tabs

Version: 1 Type: Bass Tab

Long Days Long Nights Bass Tab

   
Intro
g-----------------------------------
d-----------------------------------
a-2---------------------------------
e---------2-------0-------4----2----

Verse x2
g--------------------------------------
d--------------------------------------
a-22222222-----------------------------
e---------22222222-00000000-44----22---

After every verse and intro
g-------------------
d-------------------
a-------------------
e-00000000-22222222-

Chorus x2
g-------------------------------------
d-------------------------------------
a-------------------------------------
e-44444444-22222222-00000000-222222xx-

Bass Solo x4
[ Tab from: http://www.guitartabs.cc/tabs/m/mest/long_days_long_nights_btab.html ]
g-------------
d--------22-1-
a-2222-44-----
e-------------
after bass solo

g-------------------------------------
d-------------------------------------
a-------------------------------------
e-44444444-22222222-00000000-22222222-

On and on and on.......
g-------------------------------------
d-------------------------------------
a-22222222----------------------------
e----------22222222-00000000-22222222-

Last two notes
g----
d----
a----
e-22-



Structure

Intro
Verse x2
Chorus x2
Verse x2
Chorus x2
On and on......
Bass Solo x4
(after bass solo)
Chorus x2
On and on.......
Bass Solo x2
Last two notes