Mest - Jaded These Years Chords & Tabs

 

Jaded These Years Chords & Tabs

Mest Chords & Tabs

Version: 3 Type: Tab 0 ratings
1 star 2 stars 3 stars 4 stars 5 stars
comments

Jaded These Years Tab

   
-------------------------------------------------------------------------------
			     Jaded (These Years) - Mest
-------------------------------------------------------------------------------
Tabbed by: Josh 
Email: captain_josh@hotmail.com

Tuning: EADGBE
Notes: I looked at Jenn's tab, and its almost bang on except a bridge, and the
last note in the chorus. This is how i play it. Whole thing is acoustic part.

Intro
e|---------------------|
B|---------------------|
G|---------------------|
D|---7---------7-------|
A|----------5----------|   (2x)
E|-5----4---------0----|

Verse 1
e|----------------------------------------------|
B|----------------------------------------------|
G|----------------------------------------------|
D|------7--------7----------7----------7--------| Until Chorus
A|------------7-----7----5--------5---------5---|
E|--5------4-------------------0----------------|

Chorus				    End Of Chourse (These Yearrrrrrrsss)
e|-----------------------------------|-------------------------------------------|
B|-----------------------------------|-------------------------------------------|
G|----------7------------------------|----7-----9--------------------------------|
D|--7-------7--------4--------2------|----7-----9--------------------------------|
A|--7-------5--------4--------2------|----5-----7--------------------------------|
E|--5----------------2--------0------|-------------------------------------------|
[ Tab from: http://www.guitartabs.cc/tabs/m/mest/jaded_these_years_tab_ver_3.html ]
Verse 2 (palm muted)
e|---------------------------------------------------------------------------|
B|---------------------------------------------------------------------------|
G|------------------7--------------------------------------------------------|
D|--7-------7-------7-----2--------------------------------------------------|
A|--7-------7-------5-----2--------------------------------------------------|
E|--5-------4-------------0--------------------------------------------------|

Bridge (I THink)		End Bridge With
e|-----------------------------|----------------------------------------------|
B|-----------------------------|----------------------------------------------|
G|---6-----7-------------------|----9-----------------------------------------|
D|---6-----7------7--------6---|----9-----------------------------------------|
A|---4-----5------7--------6---|----7-----------------------------------------|
E|----------------5--------4---|----------------------------------------------|

Then Back to Chrous, and end with

e|-------------------|
B|-------------------|
G|-------------------|
D|---7---------------|
A|---7---------------|
E|---5---------------|

Pretty Sweet. No electric part yet, but ill work on it. Please email comments or questions. 





| /  slide up
| \  slide down
| h  hammer-on
| p  pull-off
| ~  vibrato
| +  harmonic
| x  Mute note
===============================================================================
Comments