Mest - Jaded These Years Chords & Tabs

 

Jaded These Years Chords & Tabs

Mest Chords & Tabs

Version: 2 Type: Tab 0 ratings
1 star 2 stars 3 stars 4 stars 5 stars
comments

Jaded These Years Tab

-------------------------------------------------------------------------------
			     Jaded (These Years) - Mest
-------------------------------------------------------------------------------

Tabbed by: Jenn aka J-Dogg
Email: Stargirl32904@aol.com

Tuning: Standard Tuning


Intro (Acoustic)
E----------------------------------------------------------------
B----------------------------------------------------------------
G----2-----2-----------------------------------------------------
D--------0-------------------------------------------------------
A--0--------------(2x)-------------------------------------------
E------4-----0---------------------------------------------------

Verse 1 (Acoustic)
[ Tab from: http://www.guitartabs.cc/tabs/m/mest/jaded_these_years_tab_ver_2.html ]
E----------------------------------------------------------------
B----------------------------------------------------------------
G----2-----2-----2-----2-----------------------------------------
D--------------0-----0---0---(7x or until chorus)----------------
A--0-----0---0---------------------------------------------------
E------4-----------0---------------------------------------------

2nd Guitar During Verse 1 (Acoustic)

E----------------------------------------------------------------
B----------------------------------------------------------------
G------------7----9----------------------------------------------
D--7----6----7----9----(Play along with above until chorus)------
A--7----6----5----7----------------------------------------------
E--5----4--------------------------------------------------------

Chorus (Palm Muted)

E----------------------------------------------------------------
B----------------------------------------------------------------
G-----------7-----------------4----------------------------------
D--7--------7--(6x)--4--------4--(6x)----------------------------
A--7--(6x)--5--------4--(6x)--2----------------------------------
E--5-----------------2-------------------------------------------

I was sick of all the stupid, wrong tabs, so I tabbed it myself. The 2nd Verse is
the same as the 1st Verse, only it's palm muted. And I'm not sure about the end.
But the chorus stays the same everytime. So, have fun.
Comments