Mest - Jaded These Years Chords & Tabs

 

Jaded These Years Chords & Tabs

Mest Chords & Tabs

Version: 1 Type: Bass Tab 0 ratings
1 star 2 stars 3 stars 4 stars 5 stars
comments

Jaded These Years Bass Tab

   
--------------------------------------------------------------------------------
			Jaded (These Years) - Mest
--------------------------------------------------------------------------------

Artist: Mest
Song: Jaded(These Years) Featuring Benji Madden of Good Charlotte.
Albulm: Mest
Tabbed by: ZeroisGreatman
Tuning: EADG

Verse:
G|----------------------------|
D|----------------------------|
A|---------------5-5----------|
E|-5-5--4-4-4-4-------0-0-0-0-|
[ Tab from: http://www.guitartabs.cc/tabs/m/mest/jaded_these_years_btab.html ]
Chorus:
G|----------------------------------------------------|
D|----------------------------------------------------|
A|--------------5-5-5-5-5-5---------------------------|
E|-5-5-5-5-5-5---------------2-2-2-2-2-2--0-0-0-0-0-0-|

Bridge:                                             "...By...."
G|-------------------------------------------------|-----------------|
D|-0-0-0-0-0-0-0-0---------------------------------|-----------------|
A|------------------0-0-0-0-0-0-0-0----------------|-7-7-7-7-7-7-7-7-|
E|-----------------------------------0-0-0-0-0-0-0-|-----------------|

Outro:
G|----|
D|----|
A|----|
E|-5~-|

| /  slide up
| \  slide down
| h  hammer-on
| p  pull-off
| ~  vibrato
| +  harmonic
| x  Mute note

================================================================================
Comments