Mest - I Melt With You Chords & Tabs

 

I Melt With You Chords & Tabs

Mest Chords & Tabs

Version: 1 Type: Tab 0 ratings
1 star 2 stars 3 stars 4 stars 5 stars
comments

I Melt With You Tab

tabbed by: tessa r
email: nofxchick934@hotmail.com

intro:
e|--0------0--------|
B|--0------2--------| 
G|--1-1----2-2-1----|
D|--2--2---2-----2--|
A|--2------0--------|
E|--0------0--------| 

verse: "moving forward uses all my breath"
e|--0----------0---------| 
B|--0----------2---------| 
G|--1----------2xxxxxxx--|
D|--2xxxxxxx---2xxxxxxx--|
A|--2xxxxxxx---0xxxxxxx--| 
E|--0xxxxxxx---0---------|
[ Tab from: http://www.guitartabs.cc/tabs/m/mest/i_melt_with_you_tab.html ]
chorus: "i'll stop the world and melt with you"
e|--0--0--| 
B|--0--2--| 
G|--1--2--| 
D|--2--2--| just repeat those chords for a bit
A|--2--0--| 
E|--0--0--|

bridge:
e|--------------|    |----------------|
B|-------7--10--|    |----------------|
G|-6--9--x--x---|    |--6--9--11--14--|
D|-x--x--4--7---|    |--x--x---x---x--|
A|-4--7---------| OR |--4--7---9--12--|
E|--------------|    |----------------|

there you go, enjoy! \m/
Comments