Mest - Fuct Up Kid Chords & Tabs

 

Fuct Up Kid Chords & Tabs

Mest Chords & Tabs

Version: 1 Type: Tab 0 ratings
1 star 2 stars 3 stars 4 stars 5 stars
comments

Fuct Up Kid Tab

I dedicate this song to every kid.
[ Tab from: http://www.guitartabs.cc/tabs/m/mest/fuct_up_kid_tab.html ]
intro
--------------------------------------------------------
--------------------------------------------------------
---88-66------------88-66----444-----88-66---------8-6-4
-9-------99-8-89--9-------99-------9-------99-8-89------
--------------------------------------------------------
--------------------------------------------------------


verses
-----------				 ---
-----------				 ---
-----------				 ---
-4-----9--- then the palm muted part is  ---
-2-6-4-7---                              -4-
---4-2-----                              -2-


chorus
-------------
-------------
-------------
---9---11-------
-9-7-9-9---------
-7---7---------
Comments