Mest - Fuct Up Kid Chords & Tabs

 

Fuct Up Kid Chords & Tabs

Mest Chords & Tabs

Version: 1 Type: Bass Tab 0 ratings
1 star 2 stars 3 stars 4 stars 5 stars
comments

Fuct Up Kid Bass Tab

FUCT UP KID - Mest

By: Phillip (pmp1085@hotmail.com)

Intro 
G|------------------------------------------------------------------------|
D|----------22222222----------44444444----------22222222------4444--------|
A|-22222222----------22222222----------22222222----------2222------22222--|
E|------------------------------------------------------------------------|
[ Tab from: http://www.guitartabs.cc/tabs/m/mest/fuct_up_kid_btab.html ]
Verse (x4)			Bridge to chorus
G|--------------------*---------------------------------------------------|
D|--------------------*---------------------------------------------------|
A|-2-2----------------*---------------------------------------------------|
E|-----4-4--2-2--0-0--*-------22222222------------------------------------|

Chorus: Same as intro

Verse (x4)

Chorus

Intro

Bridge
G|------------------------------------------------------------------------|
D|--------2-2222----------------------2-2222-------4444-------------------|
A|-2-2222--------2-2222--------2-2222--------2222-------22222-------------|
E|----------------------2-2222--------------------------------------------|

Chorus

Really easy song.  Email me with requests or anything else.
Comments