Mest - Forget You Chords & Tabs

 

Forget You Chords & Tabs

Mest Chords & Tabs

Version: 1 Type: Tab 0 ratings
1 star 2 stars 3 stars 4 stars 5 stars
comments

Forget You Tab

FORGET YOU - Mest

Tabbed By Jeff B. (skarplug@optonline.net)
[ Tab from: http://www.guitartabs.cc/tabs/m/mest/forget_you_tab.html ]
e|-intro---------------------------------------------------------------------|
B|---------------------------------------------------------------------------|
G|----------------8------------11--------------------------------------------|
D|--9----------9--8--6--X3---9-11--------------------------------------------|
A|--9-->->->---9--6--6-------9--9--------------------------------------------|
E|--7----------7-----4-------7-----------------------------------------------|
         
e|--verse--------------------------------------------------------------------|
B|---------------------------------------------------------------------------|
G|---------------------------------------------------------------------------|
D|--6----2----6----2--4------------------------------------------------------|
A|--4----2----4----2--4------------------------------------------------------|
E|--4----0----4----0--2------------------------------------------------------|
 
e|chorus------------------|----(chorus out)----------------------------------|
B|------------------------|--------------------------------------------------|
G|------8-----8--9--------|------8-------------------------------------------|
D|---9--8--6--8--9--------|---9--8--6----------------------------------------|
A|---9--6--6--6--7--------|---9--6--6-----X2---------------------------------|
E|---7-----4--------------|---7-----4----------------------------------------|
 
e|bridge--------------|--out-------------------------------------------------|
B|--------------------|------------------------------------------------------|
G|--------------------|------------------------------------------------------|
D|--9--4--6--2--------|-6-------6---2---4-----------------6------------------|
A|--9--4--6--2--------|-6-->>>--6---2---4-->>>-end on-----6------------------|
E|--7--2--4--0--------|-4-------4---0---2-----------------4------------------|
Comments