Mest - Drawing Board Chords & Tabs

 

Drawing Board Chords & Tabs

Mest Chords & Tabs

Version: 2 Type: Tab 0 ratings
1 star 2 stars 3 stars 4 stars 5 stars
comments

Drawing Board Tab

This is just in Standard Tuning

INTRo:

Guitar 1:
----------------------------------------
----------------------------------------
---------------------------------------
-----4-4-------4-4-------4-4-------4-4--  Repeat 6x
-2-2-----2------------------------------
-----------0-0-----0-4-4-----4-2-2-----2

Guitar 2:

------------------------------------------
-7\4-2-0-4-2-4--7\4-2-0-4-4-4-2-2-2h4p2-0-
------------------------------------------  come in after
------------------------------------------  2nd time and 
------------------------------------------  play 1x
------------------------------------------

I can recall only this one time
This kind of control a girl had on my mind

Verse:

--------------------------------------
--------------------------------------
-4^^^^^^^-----------------------------
-4^^^^^^^-2^^^^^^--6^^^^^^^--4^^^^^^^-
-2^^^^^^^-2^^^^^^--6^^^^^^^--4^^^^^^^-
----------0^^^^^^--4^^^^^^^--2^^^^^^^-

I fall in deep I can't get out

---------------------------------------
---------------------------------------
---------------------------------------
-2^^^^^^^^^---4^^^^^^^^----------------
-2^^^^^^^^^---4^^^^^^^^----------------
-0^^^^^^^^^---2^^^^^^^^----------------

I've never acted this way before

Chorus:

--------------------------------------
--------------------------------------
-4^^^^^^^-----------------------------
-4^^^^^^^-2^^^^^^--6^^^^^^^--4^^^^^^^-
-2^^^^^^^-2^^^^^^--6^^^^^^^--4^^^^^^^-
----------0^^^^^^--4^^^^^^^--2^^^^^^^-

I spent days and nights in my bedroom
tryin to write the perfect song to sing to you
write a song a day but she won't like it anyway

----------------------------------
----------------------------------
--4^^^^^^^^-----------------------
--4^^^^^^^^---2^^^^^^-------------
--2^^^^^^^^---2^^^^^^-------------
--------------0^^^^^^-------------

Back to the Drawing Board

-----------------------------------
-----------------------------------
-----------------------------------
-6^^^^^--4^^^^^--2^^^^^---(4^^^^^)-
-6^^^^^--4^^^^^--2^^^^^---(4^^^^^)-
-4^^^^^--2^^^^^--0^^^^^---(2^^^^^)-
(PM)_______________________________

With the Words you've heard a million times before

Verse 2:
[ Tab from: http://www.guitartabs.cc/tabs/m/mest/drawing_board_tab_ver_2.html ]
--------------------------------------
--------------------------------------
-4^^^^^^^-----------------------------
-4^^^^^^^-4^^^^^^--6^^^^^^^--4^^^^^^^-
-2^^^^^^^-4^^^^^^--6^^^^^^^--4^^^^^^^-
----------2^^^^^^--4^^^^^^^--2^^^^^^^-

Feelin alone and she's on my mind
Try to erase all the pain from time
She's breakin up and I'm breakin down

---------------------------------------
---------------------------------------
---------------------------------------
-2^^^^^^^^^---4^^^^^^^^----------------
-2^^^^^^^^^---4^^^^^^^^----------------
-0^^^^^^^^^---2^^^^^^^^----------------

Now Im headed out of this fucked up town

Chorus:

--------------------------------------
--------------------------------------
-4^^^^^^^-----------------------------
-4^^^^^^^-2^^^^^^--6^^^^^^^--4^^^^^^^-
-2^^^^^^^-2^^^^^^--6^^^^^^^--4^^^^^^^-
----------0^^^^^^--4^^^^^^^--2^^^^^^^-

I spent days and nights in my bedroom
tryin to write the perfect song to sing to you
write a song a day but she won't like it anyway

----------------------------------
----------------------------------
--4^^^^^^^^-----------------------
--4^^^^^^^^---2^^^^^^-------------
--2^^^^^^^^---2^^^^^^-------------
--------------0^^^^^^-------------

Back to the Drawing Board

-----------------------------------
-----------------------------------
-----------------------------------
-6^^^^^--4^^^^^--2^^^^^---(4^^^^^)-
-6^^^^^--4^^^^^--2^^^^^---(4^^^^^)-
-4^^^^^--2^^^^^--0^^^^^---(2^^^^^)-
(PM)_______________________________

With the Words you've heard a million times before

Bridge:

-----------------------------------
-----------------------------------
-44--------------------------------
-44--4--666--4--2^^^^^--4^^^^^-----
-22--4--666--4--2^^^^^--4^^^^^-----
-----2--444--2--0^^^^^--2^^^^^-----

So love me so I can be myself again
So hate me so things seem normal in my head
Im tryin to break away this ball and chain
So hate me so things seem normal in my head

-----------------------------------
-----------------------------------
-----------------------------------
-4---------------------------------
-4---------------------------------
-2---------------------------------

Things seem normal in my head


Solo: I don't know the exact picking so if you just mess around with the guitar 2 
intro you might figure it out. They play the bridge in the background for chords.

Chorus:
Comments