Mest - Drawing Board Chords & Tabs

 

Mest Chords & Tabs

Version: 1 Type: Tab 0 ratings
1 star 2 stars 3 stars 4 stars 5 stars
comments

Drawing Board Tab

Mest
"Drawing Board"
Tabbed by Rob Stewart (topdawg039@aol.com)


NOTE:  All Strings Down A Half Step!


Opening Riff 1


---------------------------------------------------------------------------
---------------------------------------------------------------------------
-----0-0--------0-0----------0-0---------0-0-------------------------------
---------------------------------------------------------------------------
-3-3-----3-----------3---0-0------3-----------3----------------------------
------------1-1----------------------3-3-----------------------------------


Opening Riff 2
[ Tab from: http://www.guitartabs.cc/tabs/m/mest/drawing_board_tab.html ]
---------------------------------------------------------------------------
-/8--5-------5--------/8-5-------------------------------------------------
-------7-5-----7-9-7-------7-5--9-9-9h10p9--7-9-5--------------------------
---------------------------------------------------------------------------
---------------------------------------------------------------------------
---------------------------------------------------------------------------

Power Chords:  

The whole rest of the song; muted parts, chorus, "so love me..." Is just variations of these
power chords.

In Order They Appear (usually)

1) A String, 3rd fret
2) E String, 1st fret
3) E String, 5th fret
4) E String, 3rd fret.


Sorry, I didnt feel like drawing them out formally.  Its just a lot of playing around with these 
chords.  Have fun.
Comments