Mest - Drawing Board Number Two Chords & Tabs

 

Drawing Board Number Two Chords & Tabs

Mest Chords & Tabs

Version: 1 Type: Tab 0 ratings
1 star 2 stars 3 stars 4 stars 5 stars
comments

Drawing Board Number Two Tab

   
                                 DRAWING BOARD - Mest
-------------------------------------------------------------------------------

Mest - - - drawing board

/ = slide up 
\ = slide down
h = hammer
p = pull off

intro-Guitar 1
e----------------------------------------------------------------------------------
b----------------------------------------------------------------------------------
g----------------------------------------------------------------------------------
d-----------4-4--------------------4-4------------------4-4-----------------4-4----
a---2-2-----------2----------------------------------------------------------------
e-----------------------------0-0----------0------4-4----------4-----2-2---------2-  x6

intro-Guitar 2
e--------------------------------------------------------------------
b--------------------------------------------------------------------
g--4/11--8-6-4--6/8-6-6h8p6----4/11--8-6-4-6-8-8-8-8/9\8-6-6h8p6-----
d--------------------------------------------------------------------
a--------------------------------------------------------------------
e--------------------------------------------------------------------
(wait two times after gtr.1 intro, then play both 

together twice then in the first two lines of singing, after that its just 
gtr.1 for 2 more times)

verse- - -distorted & palm muted
e--------------------------------------------------------------------
b--------------------------------------------------------------------
g--------------------------------------------------------------------
d----4-4-4-4-4-4-4---------------------------------------------------
a----2-2-2-2-2-2-2---2-2-2-2-2-2-2---6-6-6-6-6-6-6---4-4-4-4-4-4-4---
e--------------------0-0-0-0-0-0-0---4-4-4-4-4-4-4---2-2-2-2-2-2-2---
P.M.- - - - - - - - - - - - - - - - - - - - - - - - - - - - - - - - - 

bridge into the chorus
e--------------------------------------------------------------------------
b--------------------------------------------------------------------------
g--------------------------------------------------------------------------
d--------------------------------------------------------------------------
a-------6-6----6----------6-6-----6----------2-2-----2---------2-2----2----
e-------4-4----4----------4-4-----4----------4-4-----4---------4-4----4----
P.M.- - - -          P.M.- - - -          P.M.- - - -          P.M.- - - -
[ Tab from: http://www.guitartabs.cc/tabs/m/mest/drawing_board_number_two_tab.html ]
chorus
e-----------------------------------------------------------
b-----------------------------------------------------------
g---4-4-4-4-4-4---------------------------------------------
d---4-4-4-4-4-4---0-0-0-0-0-0---6-6-6-6-6-6---4-4-4-4-4-4---
a---2-2-2-2-2-2---2-2-2-2-2-2---6-6-6-6-6-6---4-4-4-4-4-4---
e-----------------2-2-2-2-2-2---4-4-4-4-4-4---2-2-2-2-2-2--- x3  

Forth time through is played like this
e------------------------------------------------------------
b------------------------------------------------------------
g---4-4-4-4-4-4----------------------------------------------
d---4-4-4-4-4-4---0-0-0-0-0-0---6-6-6-6-6--6---4-4-4-4-4--4--
a---2-2-2-2-2-2---2-2-2-2-2-2---6-6-6-6-6--6---4-4-4-4-4--4--
e-----------------2-2-2-2-2-2---4-4-4-4-4--4---2-2-2-2-2--2--
                             P.M.- - - - -       P.M.- - - -

interlude "so love me so i can be myself again..." 
e------------------------------------------------------------------------
b------------------------------------------------------------------------
g----4-------------------------------------------------------------------
d----4----4-4----6-6----4-4------------2-2-2-2-2-2-2-----4-4-4-4-4-4-4---
a----2----4-4----6-6----4-4------------2-2-2-2-2-2-2-----4-4-4-4-4-4-4---
e---------2-2----4-4----2-2------------0-0-0-0-0-0-0-----2-2-2-2-2-2-2---
                                                           --play these a 
little longer when he says it twice right before the solo--

Solo- - -distorted
e-------------------------------------------------------------------------------------------------
b-------------------------------------------------------------------------------------------------
g--4/11--8-6-4--6/8-6-6h8p6----4/11--8-6-4-6-8-8-8-8/9\8-6-6h8p6----------------------------------
d-------------------------------------------------------------------------------------------------
a-------------------------------------------------------------------------------------------------
e------------------------------------------------------------------------------------------------- 

second part of solo- - -played along with interlude
e-----------------------------
b---12-----7-7----9-9---7-7---
g---11-----6-6----8-8---6-6---
d-----------------------------
a-----------------------------
e-----------------------------

This is 100% Correct e-mail me at blinkmestup182@aol.com if you want me to tab
other punk songs.
Comments