Mest - Chelsea Chords & Tabs

 

Chelsea Chords & Tabs

Mest Chords & Tabs

Version: 1 Type: Bass Tab 0 ratings
1 star 2 stars 3 stars 4 stars 5 stars
comments

Chelsea Bass Tab

   
Mest - Chelsea
Tabbed By: Krash100
EMail: Krash100@metacrawler.com

Tuning: G,D,A,E (Standard)

Intro:  
G:---------------------------------------------------------
D:-----2------4------------------------------------------         
A:---------------------2-------1-------------------------
E:-----------------------------------------4--------------

Pre-Verse-  0:22
G:---------------------------------------------------------
D:----------------------------4444444444--------------    
A:----22222222222------------------------------------
E:---------------------------------------------------------
[ Tab from: http://www.guitartabs.cc/tabs/m/mest/chelsea_btab.html ]
Verse 1-  0:27
G:---------------------------------------------------------
D:--------------------1111111111111-----------------
A:-2222222222222------------------------------------   
E:----------------------------------------44444444444-
                                                                                
G:----------------------------------------------------------
D:2222222222--1111111111--4444444444--------
A:---------------------------------------------------------
E:----------------------------------------------------------

Chorus:  
G:------------------------------------------------------------------------
D:--222222222--4444444444---------------------------------------
A:--------------------------------22222222--111111-----------------      X 2 1/2
E:--------------------------------------------------------44444444444-|

Verse 2- 1:29

G:----------------------------------------------------------------|
D:----------1---1--------1--1--2------2-1--1-4---44----4-2-4-------|
A:---2---2--------------- 2--2-----------------------------------2-|
E:--------------- 4--44--------------------------------------------|

Play Twice
After that play the first verse once
Order of the song:
Intro
Pre- Verse
Verse
Chorus
Pre-Verse
Verse
Chorus
Verse
Comments