Mest - Cadillac Chords & Tabs

 

Cadillac Chords & Tabs

Mest Chords & Tabs

Version: 4 Type: Tab 0 ratings
1 star 2 stars 3 stars 4 stars 5 stars
comments

Cadillac Tab

   
Estimados amigos(as) guitarrístas:
Le garantizo el 100% de los sonido y la cantidad de los traste en ésta canción.
Favor de aplicar todas las técnicas que se hace notar debajo de los trastes si
ésta la posee, para así no eliminar los elementos que con lleva éste tablero
Cualquier corrección o error, favor de hacérmelo saber a través de ésta dirección
de correo electrónico, team_madhouse_tm@hotmail.com.

LEYENDA:

(PM)  =  Palm Mute
(H)   =  Hold

ORDEN:

( Por favor, siga la secuencia del tablero; están ordenados como es la canción ).

MODO:

Las posiciones de las cuerdas en la guitarra de modo Estándar; (e)(B)(G)(D)(A)(E).


Intro  A:
e  ----------------------------------------
B  ----------------------------------------
G  --5-------------------------------------
D  --5-------------------------------------
A  --3-------------------------------------
E  ----------------------------------------X1

Intro  B:
e  ----------------------------------------
B  ----------------------------------------
G  --5-5-5---------------------------------
D  --5-5-5-----5--3-3-3-----5--------------
A  --3-3-3(H)--5--3-3-3-----5--------------
E  ------------3--1-1-1(H)--3--------------X4

(  Intro  A  )

Riff  A:
e  ----------------------------------------
B  ----------------------------------------
G  --55555555------------------------------
D  --55555555-55555555-77777777-33333333---
A  --33333333-55555555-77777777-33333333---
E  -----------33333333-55555555-11111111---X1
(PM ....................................)

Riff  B:
e  ----------------------------------------
B  ----------------------------------------
G  --5-------5-----------------------------
D  --5-5-7-3-5-5-7-3-----------------------
A  --3-5-7-3-3-5-7-3-----------------------
E  ----3-5-1---3-5-1-----------------------X1
[ Tab from: http://www.guitartabs.cc/tabs/m/mest/cadillac_tab_ver_4.html ]
(  Intro  A  )

(  Riff  A  )

(  Riff  B  )

(  Intro  B  )

Riff  C:
e  ----------------------------------------
B  --5555----------------------------------
G  --5555-555555---------------------------
D  --3333-555555---------------------------
A  -------333333---------------------------
E  ----------------------------------------X4
(PM ............)

(  Riff  B  )

(  Riff  C  )

(  Riff  B  )

(  Intro  B  )

Riff  D:
e  ----------------------------------------
B  ----------------------------------------
G  --55555555------------------------------
D  --55555555-55555555-33333333-55555555---
A  --33333333-55555555-33333333-55555555---
E  -----------33333333-11111111-33333333---X1

Outro  A:
e  ----------------------------------------
B  ----------------------------------------
G  --55555555------------------------------
D  --55555555-55555555-33333333-55555555---
A  --33333333-55555555-33333333-55555555---
E  -----------33333333-11111111-33333333---X1
                               (PM .....)

Outro  B:
e  ----------------------------------------
B  ----------------------------------------
G  --555555--------------------------------
D  --555555-555-333333-555-----------------
A  --333333-555-333333-555-----------------
E  ---------333-111111-333-----------------X3
(PM ......................)

(  Riff  D  )

Outro  C:
e  ----------------------------------------
B  ----------------------------------------
G  --55555555------------------------------
D  --55555555-55555555-33333333-55555555---
A  --33333333-55555555-33333333-55555555---
E  -----------33333333-11111111-33333333---X1
                      (PM)  (PM)(PM ....)

(  Riff  D  )  X2

(  Intro  A  )

(  Intro  B  )


Bueno, eso es todo.  Les deseo mucha suerte! y que viva el Punk y el Rock!.
O.K.
Comments