Mest - Cadillac Chords & Tabs

 

Cadillac Chords & Tabs

Mest Chords & Tabs

Version: 2 Type: Tab 0 ratings
1 star 2 stars 3 stars 4 stars 5 stars
comments

Cadillac Tab

   
Mest
"Cadillac"
Destination Unknown

intro/chorus 1:
E-----------------
B-----------------
G-5-5-------------
D-5-5-4-4-3-3-4-4-
A-3-3-4-4-3-3-4-4-
E-----2-2-1-1-2-2-
[ Tab from: http://www.guitartabs.cc/tabs/m/mest/cadillac_tab_ver_2.html ]
verse:palm-muted
E-------------------------------------
B-------------------------------------
G-55555555----------22222222----------
D-55555555-55555555-22222222-33333333-
A-33333333-55555555-00000000-33333333-
E----------33333333----------11111111-
(2nd half of verse is not palm-muted)

chorus 1
verse
chorus 1

chorus 2:
E-------------------------------------
B-------------------------------------
G-55555555----------------------------
D-55555555-55555555-33333333-55555555-
A-33333333-55555555-33333333-55555555-
E----------33333333-11111111-33333333-

bridge:
E---------------------
B---------------------
G---------------------
D-5555----------------
A-3333-5555-3333-5555-
E------3333-1111-3333-
Comments