Mest - Cadillac Chords & Tabs

 

Cadillac Chords & Tabs

Mest Chords & Tabs

Version: 1 Type: Tab 1 rating
1 star 2 stars 3 stars 4 stars 5 stars
comments

Cadillac Tab

   
Mest - Cadillac
Tabbed by: Sean "I'm Not Gay" Stinson

Tuning: STandard

Wow this song is some kind of gay.


Main riff:
|-------------------|
|-------------------|
|-5-5-5-------------|
|-5-5-5-4--3-3-3--4-|
|-3-3-3-4--3-3-3--4-|
|-------2--1-1-1--2-|

The first riff is just just C5 G5 A5 F5, the oldest progression
in the book.... listen to the song to figure out strumming. The
"buildup part" is D5.
[ Tab from: http://www.guitartabs.cc/tabs/m/mest/cadillac_tab.html ]
Second verse: All muted
Play this 3 x then
|---------------------------------------|
|---------------------------------------| Play that then go to the
|---------------------1010-9-9-7-7------| C G A F twice 
|-9-9--7-7-5-5--------1010-9-9-7-7-5-5--| 
|-9-9--7-7-5-5-5-5-----8-8-7-7-5-5-5-5--|
|-7-7--5-5-3-3-5-5-----------------3-3--|
|--------------3-3----------------------|

|-------------------|
|--5-5-3-3----------| Play this 4 times...
|----------5-5-4-4--|
|-------------------|
|-------------------|
|-------------------|

Then the chorus:

C5                  G5                     F5
Top down seat back Rolling in mah cadillac Self control knowing
       G5
That something .....

--------
Listen to the song you'll get the point.

- Sean

Comments