Mest - Cadillac Chords & Tabs

 

Cadillac Chords & Tabs

Mest Chords & Tabs

Version: 2 Type: Bass Tab 0 ratings
1 star 2 stars 3 stars 4 stars 5 stars
comments

Cadillac Bass Tab

Fetato.........SIN PRISA!!!!!


Intro:only in concert

g:---------------------------------------------|
d:---------------------------------------------|
a:---33----------33----------------------------|  x3
e:-----22-11-22----22-11-22--------------------|

after the intro is the same thing whit the guitar

verse 1:

g:--------------------------------------------|
d:--------------------------------------------|   x8
a:---3333-------------------------------------|
e:-------3333-55555-1111----------------------|

and now we're gonna roll
g:--------------------------------------------|
d:--------------------------------------------|
a:--------------------------------------------|
e:---333333333333333--------------------------|

play again the intro x4 (With the top down seat back rollin' in my Cadillac
With the top down seat back rollin' in my Cadillac)

verse 2:

g:---------------------------------------------|
d:---------------------------------------------|
a:---77-55-33--22------------------------------|
e:---------------------------------------------|

g:--------------------------------------------|
d:--------------------------------------------|   x6
a:---3333-------------------------------------|
e:-------3333-55555-1111----------------------|


and now I' gonna roll

g:--------------------------------------------|
d:--------------------------------------------|
a:--------------------------------------------|
e:---333333333333333--------------------------|
[ Tab from: http://www.guitartabs.cc/tabs/m/mest/cadillac_btab_ver_2.html ]
play again the intro x4 (With the top down seat back rollin' in my Cadillac
With the top down seat back rollin' in my Cadillac)

Chorus:
g:---------------------------------------------|
d:---------------------------------------------|
a:---33333333----------------------------------| x2
e:-----------33333333-11111111-33333333--------|

g:--------------------------------------------|
d:--------------------------------------------|
a:--------------------------------------------|
e:---333333333333333--------------------------|

break:
(Top down seat back wi wi wi wi with the
Top down seat back wi wi wi wi wi with the
Top down seat back top down seat back top down seat back
Rollin' in my Cadillac)

g:---------------------------------------------|
d:-------101010--------------------------------|
a:-------------9-------------------------------|  x3
e:---------------------------------------------|

g:---------------------------------------------|
d:---------------------------------------------|
a:---3333--------------------------------------|  x4
a:-------3333-1111-3333------------------------|

rollin'

Chorus:
g:---------------------------------------------|
d:---------------------------------------------|
a:---33333333----------------------------------|  x4
e:-----------33333333-11111111-333333333-------|

outro:
g:---------------------------------------------|
d:---------------------------------------------|
a:---33----------33----------------------------|  x6
e:-----22-11-22----22-11-22--------------------|
Comments